Linkin Park - Somewhere I Belong Standard Tuning Chords & Tabs

 

Somewhere I Belong Standard Tuning Chords & Tabs

Linkin Park Chords & Tabs

Version: 1 Type: Tab 0 ratings
1 star 2 stars 3 stars 4 stars 5 stars
comments

Somewhere I Belong Standard Tuning Tab

Somewhere I belong 
By linkin Park



E ----------5----------------------------------------------------
B ----7--7----7--------------------------------------------------
G --4-----------(repeat)-----------------------------------------
D -------------------------1---------2---------4-------4---------
A -------------------------2-(x8)----5--(x8)---0-(x8)--2-(x8)----
E -------------------------2---------3---------5-------0---------


[ Tab from: http://www.guitartabs.cc/tabs/l/linkin_park/somewhere_i_belong_standard_tuning_tab.html ]
E -----------------------------------------
B -----------------------------------------
G -----------------------------------------
D --1------2------2------------------------
A --2-(x8)-5-(x8)-0-(x8)--2-(x8)-----------
E --2------3--------------0----------------


Break

E -------------------------------------------------------
B -------------------------------------------------------
G -------------------------------6-/-7-/-6---------------
D -----4~~-----4~~--2-2--4~~-----x-/-x-/-x--(repeat twice)
A --2-2----5--5-----0-0-----2-2--4-/-5-/-4---------------
E --2-2----3--3-------------0-0--------------------------

If you have any questions or comments email me at Ibanez72@aol.com 
Comments