Linkin Park - Somewhere I Belong Chords & Tabs

 

Somewhere I Belong Chords & Tabs

Linkin Park Chords & Tabs

Version: 1 Type: Bass Tab 0 ratings
1 star 2 stars 3 stars 4 stars 5 stars
comments

Somewhere I Belong Bass Tab

   
Linkin Park  Somewhere I Belong
Meteora
Tabbed by Grease (l33t_grease@hotmail.com)

B, E, A, D, G - Standard 5 Sting tuning 
(Although you can just tune down to B, E, A, D on a regular 4 string)

No Bass till (0.11)
Intro:
G|------------------------------------------------------------------|
D|------------------------------------------------------------------|
A|------------------------------------------------------------------|
E|-6-6-6-6-6-6-6-6--2-2-2-2-2-2-2-2--4-4-4-4-4-4-4-4----------------|
B|---------------------------------------------------4-4-4-4-4-4-4-4|

G|------------------------------------------------------------------|
D|------------------------------------------------------------------|
A|------------------------------------------------------------------|
E|-6-6-6-6-6-6-6-6--2-2-2-2-2-2-2-2--4-4-4-4-4-4-4-4----------------|
B|------------------------------------------------------------------|

Pause, then resume at (0.23)
Chorus: Part 1
G|-------------------------------------------------------------------|
D|-------------------------------------------------------------------|
A|-------------------------------------------------------------------|
E|-6--6-6--6-6--9-9-9-9-9-9--2--2-2--2-2-----------------------------|
B|---------------------------------------4-4-4-4-4-4-4-4-------------|
[ Tab from: http://www.guitartabs.cc/tabs/l/linkin_park/somewhere_i_belong_btab.html ]
Chorus: Part 2
G|-------------------------------------------------------------------- |
D|-------------------------------------------------------------------- |
A|-------------------------------------------------------------------- |
E|-6-6-6-6-6-6-6-6--9-9-9-9-9-9-9-9--4-4-4-4-4-4-4-4-------------------|
B|----------------------------------------------------4-4-4-4-4-4-4-4--|

Verse:
G|-------------------------------------------------------------------|
D|-------------------------------------------------------------------|
A|-------------------------------------------------------------------|
E|-6-6-6-6-6-6-6-6--2-2-2-2-2-2-2-2--4-4-4-4-4-4-4-4-----------------|
B|----------------------------------------------------4-4-4-4-4-4-4-4|

Bridge:
G|------------------------- |
D|------------------------- |
A|------------------------- |
E|-6-6----2-2---4-4---------|
B|--------------------4-4---|

End:
G|-------------------------------------------------------------------------- |
D|-------------------------------------------------------------------------- |
A|-------------------------------------------------------------------------- |
E|-6--6-6--6--6--6----6--6-6--6--6--6----6--6-6--6--6--6----6--6-6--6--6--6--|
B|---------------------------------------------------------------------------|


Riff Order:

Intro 	        x 1
Chorus Part 1   x 1
Chorus Part 2   x 1
Verse		x 4
Chorus Part 1   x 3
Chorus Part 2   x 1
Verse		x 4
Chorus Part 1   x 3
Chorus part 2   x 1
Bridge          x 4
Chorus Part 1   x 6
End	        x 1

Try that, its only a guide remember. Have fun, feel free to email me. Laters.
Comments