Linkin Park - Runaway Chords & Tabs

 

Runaway Chords & Tabs

Linkin Park Chords & Tabs

Version: 9 Type: Tab 0 ratings
1 star 2 stars 3 stars 4 stars 5 stars
comments

Runaway Tab

   
Band: Linkin Park
Song: Runaway (like at H.O.B.)

Tuning: DROPPED D |-B-E-A-D-G-B-E|

Ontro
|---------------------------------|---------------------------------|
|---------------------------------|---------------------------------|
|---------------------------------|---------------------------------|
|-7---7---7---9-9---9-9---9---9-\-|-5-------5---7-7---7-7---7---7---|
|-5---5---5---7-7---7-7---7---7-\-|-3-------3---5-5---5-5---5---5---|
|-5---5---5---5-5---5-5---5---5-\-|-3-------3---3-3---3-3---3---3---|
|---------------------------------|---------------------------------|

|---------------------------------|---------------------------------|
|---------------------------------|---------------------------------|
|---------------------------------|---------------------------------|
|-7---7---7---9-9---9-9---9---9-\-|-7-------7-------7-------3-------|
|-5---5---5---7-7---7-7---7---7-\-|-5-------5-------5-------3-------|
|-5---5---5---5-5---5-5---5---5-\-|-3-------3-------5-------1-------|
|---------------------------------|---------------------------------|

|---------------------------------|---------------------------------|
|---------------------------------|---------------------------------|
|---------------------------------|---------------------------------|
|---------------------------------|-7-------7---7-7---7-7---7---7---|
|-2-------2---5-5---5-5---5---5---|-5-------5---7-7---7-7---7---7---|
|-2-------2---5-5---5-5---5---5---|-3-------3---5-5---5-5---5---5---|
|-0-------0---3-3---3-3---3---3---|---------------------------------|

|---------------------------------|---------------------------------|
|---------------------------------|---------------------------------|
|---------------------------------|---------------------------------|
|---------------------------------|-7-------7---7-7---7---7---------|
|-2-------2---5-5---5-5---5---5---|-5-------5---7-7---7---7---------|
|-2-------2---5-5---5-5---5---5---|-3-------3---5-5---5---5---------|
|-0-------0---3-3---3-3---3---3---|---------------------------------|

Pre Chorus Harmonic
|---------------------------------|
|---------------------------------|
|---------------------------------|
|-9-------9-------9---------------|
|-------------------------9-------|
|---------------------------------|
|---------------------------------|
[ Tab from: http://www.guitartabs.cc/tabs/l/linkin_park/runaway_tab_ver_9.html ]
Chorus                          3 Times
|---------------------------------|---------------------------------|
|---------------------------------|---------------------------------|
|---------------------------------|---------------------------------|
|---------------------------------|-7-------7---7-7---7-7---7---7---|
|-2-------2---5-5---5-5---5---5---|-5-------5---7-7---7-7---7---7---|
|-2-------2---5-5---5-5---5---5---|-3-------3---5-5---5-5---5---5---|
|-0-------0---3-3---3-3---3---3---|---------------------------------|

Then
|---------------------------------|---------------------------------|
|---------------------------------|---------------------------------|
|---------------------------------|---------------------------------|
|---------------------------------|-7-------7---7-7---7---7---------|
|-2-------2---5-5---5-5---5---5---|-5-------5---7-7---7---7---------|
|-2-------2---5-5---5-5---5---5---|-3-------3---5-5---5---5---------|
|-0-------0---3-3---3-3---3---3---|---------------------------------|

Bridge P.M.                     7 Times
|---------------------------------|
|---------------------------------|
|---------------------------------|
|---------------------------------|
|-0---0-0-3---0-0---0-0---5-------|
|-0---0-0-3---0-0---0-0---5-------|
|-0---0-0-1---0-0---0-0---3-------|
  .   . .     . .   . .
then
|---------------------------------|
|---------------------------------|
|---------------------------------|
|---------------------------------|
|-0---0-0-3---5-5-5-5-5-5-5-5-5-5-|
|-0---0-0-3---5-5-5-5-5-5-5-5-5-5-|
|-0---0-0-1---3-3-3-3-3-3-3-3-3-3-|
  .   . .     
last Chorus                     3 Times
|---------------------------------|---------------------------------|
|---------------------------------|---------------------------------|
|---------------------------------|---------------------------------|
|---------------------------------|-7-------7---7-7---7-7---7---7---|
|-7-------7---9-9---9-9---9---9---|-5-------5---7-7---7-7---7---7---|
|-7-------7---7-7---7-7---7---7---|-3-------3---5-5---5-5---5---5---|
|-5-------5---5-5---5-5---5---5---|---------------------------------|

Then
|---------------------------------|---------------------------------|
|---------------------------------|---------------------------------|
|---------------------------------|---------------------------------|
|---------------------------------|-7-------7---7-7---7---7---------|
|-7-------7---9-9---9-9---9---9---|-5-------5---7-7---7---7---------|
|-7-------7---7-7---7-7---7---7---|-3-------3---5-5---5---5---------|
|-5-------5---5-5---5-5---5---5---|---------------------------------|

Outro                           4 Times
|---------------------------------|---------------------------------|
|---------------------------------|---------------------------------|
|---------------------------------|---------------------------------|
|---------------------------------|-7-------7---7---5-------5---5---|
|-2-------2---2---5-------5---5---|-5-------5---5---5-------5---5---|
|-2-------2---2---5-------5---5---|-3-------3---3---3-------3---3---|
|-0-------0---0---3-------3---3---|---------------------------------|
Comments