Linkin Park - Runaway Chords & Tabs

 

Runaway Chords & Tabs

Linkin Park Chords & Tabs

Version: 8 Type: Tab 0 ratings
1 star 2 stars 3 stars 4 stars 5 stars
comments

Runaway Tab

   
Band: Linkin Park
Song: Runaway
Album: Hybrid Theory
No. of guitarists: 2

I've looked through some of the tabs here on UG and I gotta say, sorry guys i don't
think it's how the song is played but i might be wrong.. this is how i play it

Intro:

Guitar 1: (pedal effect)

e|--------------|
B|--------------|
G|--------------|
D|-11----7--9---|
A|--------------|
D|--------------| x2

Guitar 2: 

comes in on the first repeat (play lightly) 
e|----------------|---------------------------------------------------|
B|----------------|-------------------------------------12-12-12------|
G|----------------|----------------------------------------------11---|
D|-99999999999977-|---------------------------------------------------|
A|----------------|-9-99-12-1212-5-55-7-77-9-99-12-1212---------------|
D|----------------|-9-99-12-1212-5-55-7-77-9-99-12-1212---------------| 
   ..............
[ Tab from: http://www.guitartabs.cc/tabs/l/linkin_park/runaway_tab_ver_8.html ]
e|-----------------------------------------------|
B|-----------------------------------------------|
G|-----------------------------------------------|
D|-9-99-12-1212-5-55-7-77-9-99-12-1212-5-55-7-77-|
A|-9-99-12-1212-5-55-7-77-9-99-12-1212-5-55-7-77-|
D|-9-99-12-1212-5-55-7-77-9-99-12-1212-5-55-7-77-| hvy strumming 

Verse

Guitar 1:

e|--------------|
B|--------------|
G|--------------|
D|-11----7--9---|
A|--------------|
D|--------------| repeat til pre-chorus

Guitar 2:

e|----------------|
B|----------------|
G|----------------|
D|-99999999999977-|
A|----------------|
D|----------------| repeat til chorus
   ..............

Pre-Chorus:

Guitar 1:

e|--------------|
B|-12-12-12-----|
G|----------11~-|
D|--------------|
A|--------------|
D|--------------|

Chorus:

e|-----------------------------------------------|
B|-----------------------------------------------|
G|-----------------------------------------------|
D|-9-99-12-1212-5-55-7-77-9-99-12-1212-5-55-7-77-|
A|-9-99-12-1212-5-55-7-77-9-99-12-1212-5-55-7-77-|
D|-9-99-12-1212-5-55-7-77-9-99-12-1212-5-55-7-77-| repeat once

Bridge:

Guitar 1:

e|---------------|
B|---------------|
G|---------------|
D|-3-33-4-3-33-4-|
A|-3-33-4-3-33-4-|
D|-3-33-4-3-33-4-| play 8 times

Then you repeat chorus for a few times and you are done..........

Now I'm pretty sure this is how you play it, but if you disagree feel free to comment me
Comments