Linkin Park - Runaway Chords & Tabs

 

Runaway Chords & Tabs

Linkin Park Chords & Tabs

Version: 5 Type: Tab 0 ratings
1 star 2 stars 3 stars 4 stars 5 stars
comments

Runaway Tab

   
-------------------------------------------------------------------------------
			     Run Away - Linkin Park
-------------------------------------------------------------------------------
Artist: Linkin Park
Album: Hybrid Theory
Song Title: Run Away (Track 6)
Tabbed by:Zero is great man
Tuning:Standard Tunning: EADGBe

Riff 1: Played with some type of keyboard effect.
e|------------|
B|------------|"Graffiti decarations, under a sky of dust"
G|-15---------|
D|-15--14--15-|
A|-13--14--15-|"Paper bags and empty voices"
E|-----12--13-|
[ Tab from: http://www.guitartabs.cc/tabs/l/linkin_park/runaway_tab_ver_5.html ]
Riff 2: Play heavly distorted the first time, the second, played with octave
pedal, one octave lower.
e|----------------------------------|
B|----------------------------------|"I wanna run away, never say good bye"
G|-4-4-x--7-7-7-7-------------------|"I wanna know the truth, 
D|-4-4-x--7-7-7-7----5-5-x--7-7-7-7-|Instead of wondering why..."
A|-2-2-x--5-5-5-5----5-5-x--7-7-7-7-|
E|-------------------3-3-x--5-5-5-5-|

Riff 3: []= Digital Delay effect.  Then played one octave lower w/Distortion.
e|---------------------------------|[] "I'm gonna run awa, and never say
B|---------------------------------|Good bye"
G|-[7]----6-6-7-7-6-6--6-6-7-7-6-6-|
D|-[x]----6-6-7-7-6-6--6-6-7-7-6-6-|
A|-[4]----4-4-5-5-4-4--4-4-5-5-4-4-|"Gonna run away, gonna runaway"
E|---------------------------------|

| /  slide up
| \  slide down
| h  hammer-on
| p  pull-off
| ~  vibrato
| +  harmonic
| x  Mute note
=============================================================================
Comments