Linkin Park - Runaway Chords & Tabs

 

Runaway Chords & Tabs

Linkin Park Chords & Tabs

Version: 4 Type: Tab 0 ratings
1 star 2 stars 3 stars 4 stars 5 stars
comments

Runaway Tab

   
!Title:Runaway  
Tunning:Dropped D one half step down
C# G# C# F# A# D#

Intro(x2)                                           Joe Hahn plays this 2nd time --. 
x|-------------------------------------------------|------------------------|x     |
x|-------------------------------------------------|------------------------|x <---|
x|-7--7-/-10--10-10--10-10-10-10--3--3-/-5--5-5--5-|------------------------|x
x|-7--7-/-10--10-10--10-10-10-10--3--3-/-5--5-5--5-|--2*--------------------|x
x|-5--5-/-8---8--8---8--8--8--8---1--1-/-3--3-3--3-|--------2*--------------|x
x|-------------------------------------------------|------------------------|x  

then...
[ Tab from: http://www.guitartabs.cc/tabs/l/linkin_park/runaway_tab_ver_4.html ]
x|--------------------------------------------------------------------------|x
x|--------------------------------------------------------------------------|x  
x|-------10--10-10--10-10-10-10-10--10--------------------------------------|x <--2 times 
x|-0--0--10--10-10--10-10-10-10-10--10-/-10--10-10--10----------------------|x
x|-0--0--8---8--8---8--8--8--8--8---8--/-10--10-10--10----------------------|x
x|-0--0-------------------------8---8--/-10--10-10--10----------------------|x

Nothing for verse;

Chorus:
x|--------------------------------------------------------------------------|x
x|--------------------------------------------------------------------------|x
x|-------10--10-10--10-10-10-10-10--10--------------------------------------|x
x|-0--0--10--10-10--10-10-10-10-10--10-/-10--10-10--10----------------------|x4 times
x|-0--0--8---8--8---8--8--8--8--8---8--/-10--10-10--10----------------------|x
x|-0--0-------------------------8---8--/-10--10-10--10----------------------|x

Bridge
x|------------------------|x
x|------------------------|x
x|------------------------|x
x|-0--0-0-1--1-0--0-0-0-1-|x
x|-0--0-0-1--1-0--0-0-0-1-|x
x|-0--0-0-1--1-0--0-0-0-1-|x
Comments