Linkin Park - Runaway Chords & Tabs

 

Runaway Chords & Tabs

Linkin Park Chords & Tabs

Version: 4 Type: Bass Tab 0 ratings
1 star 2 stars 3 stars 4 stars 5 stars
comments

Runaway Bass Tab

Runaway by Linkin Park
Standard Tuning
No bass until (0.17)

(Intro)
G:-------------------|
D:-------------------|  x2
A:2-2/5-5------------|
E:--------3-3--5-5---|

(Verse I)
G:---------------------------------|
D:---------------------------------|
A:2---2---2--4-5---2---------------|
E:--3---3--------3---3--0-3--0-3/5-|

(Chorus)
G:-------------------|
D:-------------------|  x4
A:2-2/5-5------------|
E:--------3-3--5-5---|
[ Tab from: http://www.guitartabs.cc/tabs/l/linkin_park/runaway_btab_ver_4.html ]
(Verse II)
G:--------------------------------|
D:--------------------------1p2---|
A:2---2---2--4-5---2--------------|
E:--3---3--------3---3--0-3-----3-|

G:-------------------|
D:-------------------|  x4
A:2-2/5-5------------|
E:--------3-3--5-5---|

(Bridge)
G:------------------------------------------------|
D:------------------------------------------------|  x4
A:2-2-3-2-2---2-2-3-3-3---2-2-3-2-2---2-2-3-3-3---|
E:------------------------------------------------|

G:-------------------|
D:-------------------|  x8
A:2-2/5-5------------|
E:--------3-3--5-5---|

Thanks, please rate after you learn it. 
Tabbed by:
_TheBassist01_
Comments