Linkin Park - Pushing Me Away Chords & Tabs

 

Pushing Me Away Chords & Tabs

Linkin Park Chords & Tabs

Version: 3 Type: Tab 0 ratings
1 star 2 stars 3 stars 4 stars 5 stars
comments

Pushing Me Away Tab

Linkin Park, Pushing Me Away.
 Tabbed by Eric LaRoche, Zerocontent@siliconfreaks.com.
  
Pushing Me Away by Linkin Park
tabs by zerocontent@siliconfreaks.com
This is my first tab ever and personally i think it's all right. wow. enjoy.


Tuning 1/2 Step then drop D as noted.


Intro/Verse:
(very clean)
Eb---*12-------------------------------*12--
Bb-------------*12---------------*7---------
Gb--------*7----------------*5--------------
Db------------------------------------------
Ab------------------*7----------------------
Db------------------------------------------

[ Tab from: http://www.guitartabs.cc/tabs/l/linkin_park/pushing_me_away_tab_ver_3.html ]
-------------------------------------------------|
--*12------------*12-------------------*7--------|
----------------------------*12------------*7----|
--------*7---*5-------------------*7-------------|
------------------------*7-----------------------|
-------------------------------------------------|

(These took awhile to figure out, there ya go all the correct harmonics=*)



Part2 Intro/Chorus:  (play last piece when repeating chorus, other wise don't)
(distortion)
Eb----------------------|------|
Bb----------------------|------|
Gb----------------------|------|
Db--2---10---5---7---9--|-0----|
Ab--2---10---5---7---9--|-0----|
Db--2---10---5---7---9--|-0----|


Brige:
(distortion)
Eb--------------------------------|
Bb--------------------------------|
Gb--------------------------------|
Db---10---12---7---5---4---5---9--|
Ab---10---12---7---5---4---5---9--|
Db---10---12---7---5---4---5---9--|

Then end note is a harmonic on the 12th fret on the high Eb


 
:: Ultimate Guitar Archive :: 
http://www.ultimate-guitar.com 



Comments