Linkin Park - Pushing Me Away Chords & Tabs

 

Pushing Me Away Chords & Tabs

Linkin Park Chords & Tabs

Version: 2 Type: Tab 0 ratings
1 star 2 stars 3 stars 4 stars 5 stars
comments

Pushing Me Away Tab

Pushing Me Away
-Linkin Park
okay...this song is quite nice but you have to listen to it first or 
you can play at the same time to get the correct timing.

(#)=Harmonic   [eg. (12)=harmonic on 12th fret]

E |-12-10--------15-14-12---------10------------14-10-
B |-------12--------------12---10----12------10-------
G |----------9--------------------------9-12----------   Intro
D |---------------------------------------------------
A |---------------------------------------------------
D |---------------------------------------------------

OR

E |-(12)------------------------(12)-------
B |----------(12)-----------(7)------(12)--
G |------(7)------------(5)----------------   Intro
D |----------------------------------------
A |---------------(7)----------------------
D |----------------------------------------
[ Tab from: http://www.guitartabs.cc/tabs/l/linkin_park/pushing_me_away_tab_ver_2.html ]
E |-------------------------------------
B |---------(12)----------------(7)-----
G |-----(7)------------(12)---------(7)-   Intro cont.
D |-(7)---------------------(7)---------
A |----------------(7)------------------
D |-------------------------------------

G |---------12-12-12--------------------
d |-4--4--4-10-10-12-9--9--9-9--9--9--0-
A |-2--2--2-10-10-10-5--5--5-7--7--9--0-
D |-2--2--2-10-10-10-5--5--5-7--7--9--0-

E |---------------------------------
B |---------3--3--3-----------------
G |-5--5--5-2--2--2-2--2--2-------4-
D |-5--5--5-0--0--0-2--2--2-2--3--4-
A |-3--3--3-0--0--0-0--0--0-2--3--2-
D |---------0--0--0---------2--3----

E |--------------------------------
B |---------3--3--3----------------
G |-5--5--5-2--2--2-2--2--2--------
D |-5--5--5-0--0--0-2--2--2-4--5/9-
A |-3--3--3-0--0--0-0--0--0-4--5/9-
D |---------0--0--0---------4--5/9-

thanks for reading my tab. Hope you enjoy it....RELAX...CHILL OUT...!?
Comments