Linkin Park - Pushing Me Away Chords & Tabs

 

Pushing Me Away Chords & Tabs

Linkin Park Chords & Tabs

Version: 10 Type: Tab 0 ratings
1 star 2 stars 3 stars 4 stars 5 stars
comments

Pushing Me Away Tab

Intro:

e-----------------------------------------------|
b---------7-6-----------------6-----------------|
g-8-6---------8-----6-----------6---------------|
d-----8----------8-6---8----6-------------------|
a-------6---------------6-9---------------------|
e-----------------------------------------------|

e-------------------------------------------------------------|
b-------------------------------------------------------------|
g-------------------------------------------------------------|
d-------------------------------------------------------------|
a-6----------9---2-----------4---1---------------6-------8----|
e-6----------9---2-----------2---2---------------4-------6----|

Verse:
e-----------------------------------------------|
b---------7-6-----------------6-----------------|
g-8-6---------8-----6-----------6---------------|
d-----8----------8-6---8----6-------------------|
a-------6---------------6-9---------------------|
e-----------------------------------------------|

chourse:x2
e-------------------------------------------------------------|
b-------------------------------------------------------------|
g-------------------------------------------------------------|
d-------------------------------------------------------------|
a-6----------9---2-----------4---1---------------6-------8----|
e-6----------9---2-----------2---2---------------4-------6----|
[ Tab from: http://www.guitartabs.cc/tabs/l/linkin_park/pushing_me_away_tab_ver_10.html ]
Verse:
e-----------------------------------------------|
b---------7-6-----------------6-----------------|
g-8-6---------8-----6-----------6---------------|
d-----8----------8-6---8----6-------------------|
a-------6---------------6-9---------------------|
e-----------------------------------------------|

chourse:x2
e-------------------------------------------------------------|
b-------------------------------------------------------------|
g-------------------------------------------------------------|
d-------------------------------------------------------------|
a-6----------9---2-----------4---1---------------6-------8----|
e-6----------9---2-----------2---2---------------4-------6----|

e-------------------------------------------------------------|
b-------------------------------------------------------------|
g-------------------------------------------------------------|
d-------------------------------------------------------------|
a-9--------------11----------8---13---------------11----------|
e-7--------------9-----------6---11---------------9-----------|

e-------------------------------------------------------------|
b-------------------------------------------------------------|
g-------------------------------------------------------------|
d-------------------------------------------------------------|
a-9--------------11----------8---13---------------11------8---|
e-7--------------9-----------6---11---------------9-------6---|

chourse:x4
e-------------------------------------------------------------|
b-------------------------------------------------------------|
g-------------------------------------------------------------|
d-------------------------------------------------------------|
a-6----------9---2-----------4---1---------------6-------8----|
e-6----------9---2-----------2---2---------------4-------6----|
Comments