Linkin Park - Pushing Me Away Remix Chords & Tabs

 

Pushing Me Away Remix Chords & Tabs

Linkin Park Chords & Tabs

Version: 2 Type: Tab 0 ratings
1 star 2 stars 3 stars 4 stars 5 stars
comments

Pushing Me Away Remix Tab

   
----------------------------------------------------------------------------
			     Pshng Me Aw*y - Linkin Park
----------------------------------------------------------------------------
Tabbed by:Adarsh
Email:guitardude123@hotmail.com

Tuning:Drop D half-step down(Eb,Bb,Gb,Db,Ab,Db)
This is the best remix song of Alt Metal band Linkin Park. It features in Reanimation
and Live in Texas.It seems 90% right.

Guitar 1:Brad Delson (acoustic for most but changes in middle of bridge)
Guitar 2:Mike Shinoda(distortion)

The words on the choruses and the bridge are to tell you where the chord falls

Intro: Keyboard then...
  Guitar 1
Eb|----7-----7-----7---5-----5-----5-------------|
Bb|------5-5---5-5---5---5-5---5-5---5-----------|
Gb|----------------------------------------------|
Db|----------------------------------------------|x2
Ab|----------------------------------------------|
Db|----------------------------------------------|
   'When I look into your eyes..........'

Both Guitars: Play same through Verse 1,First Chorus and Verse 2
Eb|----------------------------------------------|
Bb|----------------------------------------------|
Gb|----------------------------------------------|
Db|---2-2----------------------------------------|
Ab|---2-2----------------------------------------|
Db|---2-2-2-2-2-2-2-2-2-2-2-2-2-2-2-2-2-2--------|
[ Tab from: http://www.guitartabs.cc/tabs/l/linkin_park/pushing_me_away_remix_tab_ver_2.html ]
Pre-Chorus
  Guitar 1
Eb|----7-----7-----7---5-----5-----5-------------|
Bb|------5-5---5-5---5---5-5---5-5---5-----------|
Gb|----------------------------------------------|
Db|----------------------------------------------|x4
Ab|----------------------------------------------|
Db|----------------------------------------------|
   'Everything falls apart............'
Chorus
   Guitar 1
Eb|----7-----7-----7---5-----5-----5-------------|
Bb|------5-5---5-5---5---5-5---5-5---5-----------|
Gb|----------------------------------------------|
Db|----------------------------------------------|
Ab|----------------------------------------------|
Db|----------------------------------------------|
   'Why..I...stayed.......'
   Guitar 2
Eb|------------------------------------------------------------------------|
Bb|------------------------------------------------------------------------|
Gb|------------------------------------------------------------------------|
Db|2-2-2-2-2-2-2-2-10-10-10-10-10-10-10-10-5-5-5-5-5-5-5-5-7-7-7-9-9-9-0-0-|
Ab|2-2-2-2-2-2-2-2-10-10-10-10-10-10-10-10-5-5-5-5-5-5-5-5-7-7-7-9-9-9-0-0-|
Db|2-2-2-2-2-2-2-2-10-10-10-10-10-10-10-10-5-5-5-5-5-5-5-5-7-7-7-9-9-9-0-0-|
  'Why.............stayed..................push...........away...no matter'
   Bridge
   Guitar 1
Eb|----7-----7-----7---5-----5-----5-------------|
Bb|------5-5---5-5---5---5-5---5-5---5-----------|
Gb|----------------------------------------------|
Db|----------------------------------------------|
Ab|----------------------------------------------|
Db|----------------------------------------------|
   'Reverse Psychology's failing.....'

   Guitar 2
Eb|----------------------------------------------|
Bb|----------------------------------------------|
Gb|----------------------------------------------|
Db|----------------------------------------------|
Ab|----------------------------------------------|
Db|--2-2-2-2-2-2-2-2-2-2-2-2-2-2-2-2-2-2-2-------|
Start on 'When I look into your eyes.........'

   Guitar 1
Eb|-------------------------------------------------------------------|
Bb|-------------------------------------------------------------------|
Gb|--5-5-5-5-5-5-5-5-7-7-7-7-7-7-7-7-9-9-9-9-9-9-9-9-9-9-9-9-9-9-9-9-9|
Db|--x-x-x-x-x-x-x-x-x-x-x-x-x-x-x-x-x-x-x-x-x-x-x-x-x-x-x-x-x-x-x-x-x|
Ab|--3-3-3-3-3-3-3-3-5-5-5-5-5-5-5-5-7-7-7-7-7-7-7-7-7-7-7-7-7-7-7-7-7|
Db|-------------------------------------------------------------------|
  'Why...............................the sacrifice of.................'
Eb|----------------------------------------------------|
Bb|----------------------------------------------------|
Gb|--9-9-9-9-9-9-9-9-9-9-9-9-9-9-9-9-9-9-9-9-9-9-11-11-|
Db|--x-x-x-x-x-x-x-x-x-x-x-x-x-x-x-x-x-x-x-x-x-x-x--x--|
Ab|--7-7-7-7-7-7-7-7-7-7-7-7-7-7-7-7-7-7-7-7-7-7-9--9--|
Db|----------------------------------------------------|
   'Lie.........................................knowing'
Guitar 2
Eb|------------------------------------------------------------------|
Bb|------------------------------------------------------------------|
Gb|------------------------------------------------------------------|
Db|--10-10-10-10-10-12-12-12-12-12-5-5-5-5-5-7-7-7-9-9-9-9-----------|x2
Ab|--10-10-10-10-10-12-12-12-12-12-5-5-5-5-5-7-7-7-9-9-9-9-----------|
Db|--10-10-10-10-10-12-12-12-12-12-5-5-5-5-5-7-7-7-9-9-9-9-----------|
   'Why..........................sacrifice...hiding in a..'
   Final Chorus
   Guitar 1
Eb|--------------------------------------------------------|
Bb|--------------------------------------------------------|
Gb|--16-16-16-16-14-14-14-14-16-16-16-16-17-17-16-16-14-14-|
Db|--x--x--x--x--x--x--x--x--x--x--x--x--x--x--x--x--x--x--|x4
Ab|--14-14-14-14-12-12-12-14-14-14-14-14-15-15-14-14-12-12-|
Db|--------------------------------------------------------|
   'Why I........stayed......push.......away....no.matter..'
   Guitar 2
Eb|------------------------------------------------------------------------|
Bb|------------------------------------------------------------------------|
Gb|------------------------------------------------------------------------|
Db|2-2-2-2-2-2-2-2-10-10-10-10-10-10-10-10-5-5-5-5-5-5-5-5-7-7-7-9-9-9-0-0-|
Ab|2-2-2-2-2-2-2-2-10-10-10-10-10-10-10-10-5-5-5-5-5-5-5-5-7-7-7-9-9-9-0-0-|
Db|2-2-2-2-2-2-2-2-10-10-10-10-10-10-10-10-5-5-5-5-5-5-5-5-7-7-7-9-9-9-0-0-|
  'Why.............stayed..................push...........away...no matter'

Enjoy!!!An easy song to play but you need 2 guitars
Comments