Linkin Park - Points Of Authority Chords & Tabs

 

Points Of Authority Chords & Tabs

Linkin Park Chords & Tabs

Version: 6 Type: Tab 0 ratings
1 star 2 stars 3 stars 4 stars 5 stars
comments

Points Of Authority Tab

   
Title:Points Of Authority
Tunning:Dropped D one half step down
C# G# C# F# A# D#

Intro:
x|-----7-------7-------7-------7-------7-------7-------7-------7------------|x
x|---8---8---8---8---8---8---8---8---8---8---8---8---8---8---8---8----------|x
x|-9-------9-------9-------9-------9-------9-------9-------9----------------|x
x|--------------------------------------------------------------------------|x
x|--------------------------------------------------------------------------|x
x|--------------------------------------------------------------------------|x

[ Tab from: http://www.guitartabs.cc/tabs/l/linkin_park/points_of_authority_tab_ver_6.html ]
x|--------------------------------------------------------------------------|x
x|--------------------------------------------------------------------------|x
x|--------------------------------------------------------------------------|x
x|-2-2-0h3-3-0h2-2h3-0h2-2-0h3-3-2-2-0-0h3--2-2-0h3-3-0h2-2h3-0h2-2-0h3-----|x
x|-2-2-0h3-3-0h2-2h3-0h2-2-0h3-3-2-2-0-0h3--2-2-0h3-3-0h2-2h3-0h2-2-0h3-----|x
x|-2-2-0h3-3-0h2-2h3-0h2-2-0h3-3-2-2-0-0h3--2-2-0h3-3-0h2-2h3-0h2-2-0h3-----|x

Verse:
x|------------------------------------------|x
x|------------------------------------------|x
x|------------------------------------------|x  <------Repeat 5 times
x|2-2-2h3-3--0h2-2h3--0h2-2-2h3--x-2-x-0-x-3|x
x|2-2-2h3-3--0h2-2h3--0h2-2-2h3--x-2-x-0-x-3|x
x|2-2-2h3-3--0h2-2h3--0h2-2-2h3--x-2-x-0-x-3|x

Chorus
x|---------------------------------------|x
x|---------------------------------------|x
x|4---5---4---5---4---5---4---5----------|x
x|2---3---2---3---2---3---2---3---2--0--3|x
x|2---3---2---3---2---3---2---3---2--0--3|x
x|2---3---2---3---2---3---2---3---2--0--3|x
Comments