Linkin Park - Points Of Authority Chords & Tabs

 

Points Of Authority Chords & Tabs

Linkin Park Chords & Tabs

Version: 2 Type: Tab 1 rating
1 star 2 stars 3 stars 4 stars 5 stars
comments

Points Of Authority Tab

Linkin-Park-Point-of-Authority

Drop your Guitar to "D" tunning

Tabbed By: Andrew Eisberg-IcEbErG2213@aol.com

             ^     ^     ^            ^    ^   ^   ^           ^    ^     ^           ^
E---0--0--0--1---0-0--0--1---0--0--0--1--0-1-0-1-0-1--0--0--0--1--0-0--0--1--0--0--0--1-
A---0--0--0--1---0-0--0--1---0--0--0--1--0-1-0-1-0-1--0--0--0--1--0-0--0--1--0--0--0--1-
D-------------------------------------------------------------------------------------------------------------
G-------------------------------------------------------------------------------------------------------------
B-------------------------------------------------------------------------------------------------------------
e------------------------------------------------------------------------------------------------------------- 

             ^     ^     ^            ^    ^   ^   ^           ^    ^     ^           ^    ^   ^
E---0--0--0--1---0-0--0--1---0--0--0--1--0-1-0-1-0-1--0--0--0--1--0-0--0--1--0--0--0--1--0-1-0-1-
A---0--0--0--1---0-0--0--1---0--0--0--1--0-1-0-1-0-1--0--0--0--1--0-0--0--1--0--0--0--1--0-1-0-1-
D-------------------------------------------------------------------------------------------------------------------------
G-------------------------------------------------------------------------------------------------------------------------
B-------------------------------------------------------------------------------------------------------------------------
e--------------------------------------------------------------------------------------------------------------------------
      ^
E---0-1-----
A---0-1-----
D------------
G------------(continued) Do This 6x
B------------
e------------

E---0~~~~~~~2~~~~~~~------------------
A---0~~~~~~~2~~~~~~~------------------
D-----------------------------------------------------Do This 8x
G-----------------------------------------------------
B-----------------------------------------------------
e------------------------------------------------------

             ^     ^     ^            ^    ^   ^   ^           ^    ^     ^           ^    ^   ^   
E---0--0--0--1---0-0--0--1---0--0--0--1--0-1-0-1-0-1--0--0--0--1--0-0--0--1--0--0--0--1--0-1-0-1-
A---0--0--0--1---0-0--0--1---0--0--0--1--0-1-0-1-0-1--0--0--0--1--0-0--0--1--0--0--0--1--0-1-0-1-
D-------------------------------------------------------------------------------------------------------------------------
G-------------------------------------------------------------------------------------------------------------------------
B-------------------------------------------------------------------------------------------------------------------------
e--------------------------------------------------------------------------------------------------------------------------
      ^
E---0-1---
A---0-1---
D-----------
G-----------(continued) do this 6x
B-----------
e-----------
[ Tab from: http://www.guitartabs.cc/tabs/l/linkin_park/points_of_authority_tab_ver_2.html ]
E---0~~~~~~~2~~~~~~~------------------
A---0~~~~~~~2~~~~~~~------------------
D-----------------------------------------------------Do This 8x
G-----------------------------------------------------
B-----------------------------------------------------
e------------------------------------------------------

             ^     ^     ^            ^    ^   ^   ^           ^    ^     ^           ^    ^   ^   
E---0--0--0--1---0-0--0--1---0--0--0--1--0-1-0-1-0-1--0--0--0--1--0-0--0--1--0--0--0--1--0-1-0-1-
A---0--0--0--1---0-0--0--1---0--0--0--1--0-1-0-1-0-1--0--0--0--1--0-0--0--1--0--0--0--1--0-1-0-1-
D-------------------------------------------------------------------------------------------------------------------------
G-------------------------------------------------------------------------------------------------------------------------
B-------------------------------------------------------------------------------------------------------------------------
e--------------------------------------------------------------------------------------------------------------------------
      ^
E---0-1---
A---0-1---
D----------
G----------(continued) Do This 6x
B----------
e----------

E---0~~~~~~~2~~~~~~~------------------
A---0~~~~~~~2~~~~~~~------------------
D-----------------------------------------------------Do This 16x
G-----------------------------------------------------
B-----------------------------------------------------
e------------------------------------------------------

             ^     ^     ^            ^    ^   ^   ^           ^    ^     ^           ^    ^   ^    
E---0--0--0--1---0-0--0--1---0--0--0--1--0-1-0-1-0-1--0--0--0--1--0-0--0--1--0--0--0--1--0-1-0-1-
A---0--0--0--1---0-0--0--1---0--0--0--1--0-1-0-1-0-1--0--0--0--1--0-0--0--1--0--0--0--1--0-1-0-1-
D-------------------------------------------------------------------------------------------------------------------------
G-------------------------------------------------------------------------------------------------------------------------
B-------------------------------------------------------------------------------------------------------------------------
e--------------------------------------------------------------------------------------------------------------------------
      ^
E---0-1---
A---0-1---
D----------
G----------
B----------
e-----------

            ^    ^     ^           ^  ^  ^  ^       ^        ^     ^           ^    ^   ^   ^
E--0--0--0--1--0-0--0--1--0--0--0--1--1--1--1-----0-1------0-0--0--1--0--0--0--1--0-1-0-1-0-1-0-
A--0--0--0--1--0-0--0--1--0--0--0--1--1--1--1-----0-1------0-0--0--1--0--0--0--1--0-1-0-1-0-1-0-
D-----------------------------------------------------------------------------------------------------------------------
G-----------------------------------------------------------------------------------------------------------------------
B-----------------------------------------------------------------------------------------------------------------------
e-----------------------------------------------------------------------------------------------------------------------
Comments