Linkin Park - Points Of Authority Chords & Tabs

 

Points Of Authority Chords & Tabs

Linkin Park Chords & Tabs

Version: 1 Type: Tab 0 ratings
1 star 2 stars 3 stars 4 stars 5 stars
comments

Points Of Authority Tab

   
{\rtf1\ansi\ansicpg1252\deff0\deflang1033{\fonttbl{\f0\fswiss\fcharset0 Arial;}}
\viewkind4\uc1\pard\f0\fs20 Artist: Linkin Park\par
Album: ReAnimation\par
Track: Pts.Of.Athrty ReAnimated\par
\par
Tabbed by: Adam Eugenio (LinkinParkX13@hotmail.com)\par
\par
Tuning: Standard tuning then one step down (Drop D) (D,A,D,G,B,E)\par
\par
E |-------|----------|---------|\par
B |-------|----------|---------|\par
G |-------|----------|---------|   Play 12 Times\par
D |-1-1-|--0-1-1-|-1-0-2-|\par
A |-1-1-|--0-1-1-|-1-0-2-|\par
D |-1-1-|--0-1-1-|-1-0-2-|\par
\par
E |---------|-----------------------------------------|\par
B |---------|-----------------------------------------|\par
G |---------|-----------------------------------------|        Play 4 Times\par
D |-1----1-|-1-1--0--0--6---2-2---2-2-2-2-2-|\par
A |-1----1-|-1-1--0--0--6---2-2---2-2-2-2-2-|\par
D |-1----1-|-1-1--0--0--6---2-2---2-2-2-2-2-|\par
\par
E |-------|----------|---------|\par
B |-------|----------|---------|\par
G |-------|----------|---------|      Play 5 Times.\par
D |-1-1-|--0-1-1-|-1-0-2-|\par
A |-1-1-|--0-1-1-|-1-0-2-|\par
D |-1-1-|--0-1-1-|-1-0-2-|\par
\par
E |----------|----------------------------------------|\par
B |----------|----------------------------------------|\par
G |----------|----------------------------------------|     Play 4 Times.\par
D |-1----1-|-1-1--0--0--6---2-2---2-2-2-2-2-|\par
A |-1----1-|-1-1--0--0--6---2-2---2-2-2-2-2-|\par
D |-1----1-|-1-1--0--0--6---2-2---2-2-2-2-2-|\par
\par
E |------|-----------|---------|\par
B |------|-----------|---------|\par
G |------|-----------|---------|      Play 4 Times.\par
D |-1-1-|--0-1-1-|-1-0-2-|\par
A |-1-1-|--0-1-1-|-1-0-2-|\par
D |-1-1-|--0-1-1-|-1-0-2-|\par
\par
E |--------------------|\par
B |--------------------|\par
G |--------------------|      Play 4 Times.\par
D |-2--------------3--|\par
A |-2--------------3--|\par
D |-2--------------3--|\par
\par
E |------------|----------------------------------------|\par
B |------------|----------------------------------------|\par
G |------------|----------------------------------------|   Play 4 Times.\par
D |-1----1---|-1-1--0--0--6---2-2---2-2-2-2-2-|\par
A |-1----1---|-1-1--0--0--6---2-2---2-2-2-2-2-|\par
D |-1----1---|-1-1--0--0--6---2-2---2-2-2-2-2-|\par
\par
E |---------|------------|---------|\par
B |---------|------------|---------|\par
G |---------|------------|---------| Played 4 Times With Skipping Then A Synthesizer.\par
D |-1-1---|--0-1-1---|-1-0-2-|\par
A |-1-1---|--0-1-1---|-1-0-2-|\par
D |-1-1---|--0-1-1---|-1-0-2-|\par
\par
\par
\par
\par
\par
}

[ Tab from: http://www.guitartabs.cc/tabs/l/linkin_park/points_of_authority_tab.html ]
Comments