Linkin Park - Points Of Authority Chords & Tabs

 

Points Of Authority Chords & Tabs

Linkin Park Chords & Tabs

Version: 4 Type: Bass Tab 0 ratings
1 star 2 stars 3 stars 4 stars 5 stars
comments

Points Of Authority Bass Tab

Points of Authority by Linkin Park
Standard Tuning
Bass Starts at (0.20)

(Intro)
G:------------------------------------------|
D:------------------------------------------|  x2
A:6-6-7-7-7--4-6-7---4-6-6-7-7---7-6-6-4-4-7|
E:------------------------------------------|

(Guitar)

(Verse)
G:------------------------------------------|
D:------------------------------------------|  x2
A:6-6-7-7-7--4-6-7---4-6-6-7-7---7-6-6-4-4-7|
E:------------------------------------------|

G:------------------------------------------|
D:------------------------------------------|
A:6-6-7-7-7--4-6-7---4-6-6-7-7---7-6-4-7----|
E:------------------------------------------|

(Chorus)
G:-------------------|
D:-------------------|  x2
A:6-----7-----6-----7|
E:-------------------|

G:------------------------------------------|
D:------------------------------------------|  
A:6-6-7-7-7--4-6-7---4-6-6-7-7---7-6-6-4-4-7|
E:------------------------------------------|

(Guitar)

G:------------------------------------------|
D:------------------------------------------|  x2  
A:6-6-7-7-7--4-6-7---4-6-6-7-7---7-6-6-4-4-7|
E:------------------------------------------|
[ Tab from: http://www.guitartabs.cc/tabs/l/linkin_park/points_of_authority_btab_ver_4.html ]
(1.21)
G:------------------------------------------|
D:------------------------------------------|
A:6-6-7-7-7--4-6-7---4-6-6-7-7---7-6-4-7----|
E:------------------------------------------|

(Chorus)
G:-------------------|
D:-------------------|  x2
A:6-----7-----6-----7|
E:-------------------|

G:------------------------------------------|
D:------------------------------------------|  x4 
A:6-6-7-7-7--4-6-7---4-6-6-7-7---7-6-6-4-4-7|
E:------------------------------------------|

G:-------------------|      |-------------------------|
D:-------------------|  x3  |-------------------------|
A:6-----7-----6-----7|      |6---7---6---7---6-6-4-4-7|
E:-------------------|      |-------------------------|

G:------------------------------------------|
D:------------------------------------------|  x2
A:6-6-7-7-7--4-6-7---4-6-6-7-7---7-6-6-4-4-7|
E:------------------------------------------|

G:------------------------------------------|
D:------------------------------------------|
A:6-6-7-7-7--4-6-7---4-6-6-7-7---7--4-6-7---|
E:------------------------------------------|

(Outro)
G:------------------------------------------|
D:------------------------------------------|
A:7-7---6-4-7---4-6-6-7-7---6-6-4-4-7-4-----|
E:------------------------------------------|

Thanks, Please rate after you learn it. 
Tabbed by:
_TheBassist01_
Comments