Linkin Park - Place For My Head Chords & Tabs

 

Place For My Head Chords & Tabs

Linkin Park Chords & Tabs

Version: 2 Type: Tab 0 ratings
1 star 2 stars 3 stars 4 stars 5 stars
comments

Place For My Head Tab

   
TUNING = DROP D HALF STEP DOWN
C#, G#, C#, F#, A#, D#

INTRO (CLEAN PAML MUTED)
---------------------
---------------------
--4-4-5-4-2----------
2-----------5-5-3-3-5
---------------------
---------------------

 VERSE 1 (HIT DISTORTION)
---------------------
---------------------
--4-4-5-4-2----------
2-----------5-5-3-3-5
---------------------
---------------------

CHOROUS
----------------------------------------
----------------------------------------
----4--5--4--2--------------------------
-2--4--5--4--2--7--5-7------------------
-2--2--3--2--0--7--5-7------------------   FIGURE OUT RYTHM
-2--------------7--5-7------------------
[ Tab from: http://www.guitartabs.cc/tabs/l/linkin_park/place_for_my_head_tab_ver_2.html ]
   VERSE 2
---------------------
---------------------
--4-4-5-4-2----------
2-----------5-5-3-3-5
---------------------
---------------------
 
       CHOURUS 2
----------------------------------------
----------------------------------------
----4--5--4--2--------------------------
-2--4--5--4--2--7--5-7------------------
-2--2--3--2--0--7--5-7------------------   FIGURE OUT RYTHM
-2--------------7--5-7------------------

      BRIDGE
----------------------
----------------------
----------------------
2-2---2-2---5---2--2--
2-2---2-2---5---2--2--
2-2---2-2---5---2--2--

       NEXT PART
-----------------------------------------
-----------------------------------------
-----------------------------------------
-2-2--2-2-2--2-2-2--2-2-2--5-5--3-3--5-5-
-2-2--2-2-2--2-2-2--2-2-2--5-5--3-3--5-5-
-2-2--2-2-2--2-2-2--2-2-2--5-5--3-3--5-5-
Comments