Linkin Park - Part Of Me Chords & Tabs

 

Part Of Me Chords & Tabs

Linkin Park Chords & Tabs

Version: 2 Type: Tab 0 ratings
1 star 2 stars 3 stars 4 stars 5 stars
comments

Part Of Me Tab

   
Part Of Me
Tuning: Dropped D one half step down
C# G# C# F# A# D#

x|-----------------------------|x
x|-----------------------------|x
x|-----------------------------|x
x|-----------------------------|x
x|-----------7-7-----7777--7---|x
x|-6-6--6-6------6-6-----------|x

Verse x4
x|---------------------8---8------------------------------------------------|x
x|-10--10--10--10--------------8---8---10--10--10--10--12--12---8--8--------|x
x|----9---9---9---9/10--10--10--10--9-----9---9---9---9---9---9---9--9------|x
x|--------------------------------------------------------------------------|x
x|--------------------------------------------------------------------------|x
x|--------------------------------------------------------------------------|x
[ Tab from: http://www.guitartabs.cc/tabs/l/linkin_park/part_of_me_tab_ver_2.html ]
Pre-chorus x4
x|--------------------------------------------------------------------------|x
x|--------------------------------------------------------------------------|x
x|--------------------------------------------------------------------------|x
x|-3-2--3-2--3-2--3-2-22-3--5-----------------------------------------------|x
x|-3-2--3-2--3-2--3-2-22-3--5-----------------------------------------------|x
x|-3-2--3-2--3-2--3-2-22-3--5-----------------------------------------------|x
   
Chorus
x|--------------------------------------------------------------|x
x|--------------------------------------------------------------|x
x|----------9-9-9-9-999------9-9------------------------------4-|x
x|6-6--6-6--9-9-9-9-999--6-6-9-9--6-6--6-6--4-4--4-4-44-9-9-4-4-|x
x|6-6--6-6--7-7-7-7-777--6-6-7-7--6-6--6-6--4-4--4-4-44-9-9-4-2-|x
x|6-6--6-6---------------6-6------6-6--6-6--4-4--4-4-44-9-9-4---|x


x|--------------------------------------------------------------|x
x|--------------------------------------------------------------|x
x|----------9-9-9-9-999------9-9------------------------4-4---4-|x
x|6-6--6-6--9-9-9-9-999--6-6-9-9--6-6--6-6--1-1--1-1-11-4-4-1-4-|x
x|6-6--6-6--7-7-7-7-777--6-6-7-7--6-6--6-6--1-1--1-1-11-2-2-1-2-|x
x|6-6--6-6---------------6-6------6-6--6-6--1-1--1-1-11-----1---|x
Comments