Linkin Park - Part Of Me Chords & Tabs

 

Part Of Me Chords & Tabs

Linkin Park Chords & Tabs

Version: 1 Type: Tab 0 ratings
1 star 2 stars 3 stars 4 stars 5 stars
comments

Part Of Me Tab

this is a new song and well actually it hasn't been released yet.
 yeah i got it from Morpheus so most of you probably haven't heard it
yet but its a great song to play anyways.


this is the intro they only play it once
e------------------------------------------------------------------
b------------------------------------------------------------------
g------------------------------------------------------------------
d------------------------------------------------------------------
a----------------8-8-----8888-8------------------------------------
E----5-5---5-5-------5-5-------------------------------------------
    PM..........................

[ Tab from: http://www.guitartabs.cc/tabs/l/linkin_park/part_of_me_tab.html ]
this riff is played throughout the verse of the song and without 
distortion for like a solo part
e------------------------------------------------------------------
b----9--9--9--9--9h10/12--12--7--7-----9--9--9--9--11--11--7--7----
g-----8--8--8-----------9---9--9--9-----8--8--8--8---8---8--8--8---
d------------------------------------------------------------------
a------------------------------------------------------------------
E------------------------------------------------------------------

this is the chorus theres a bridge before this but i don't know how
to play it yet
e------------------------------------------------------------------
b------------------------------------------------------------------
g------------------------------------------------------------------
d-----------------------101010101010-------------------------------
a-----7-7---7-7---7-7----8-8-7-8-8-8-------------------------------
E-----5-5---5-5---5-5----------------------------------------------

well there ya have it. hope it sounds right to u guys. hey i suggest u 
all try to find this song some where its a great linkin park song.well
catch ya later

                                                       -Shane
Comments