Linkin Park - Part Of Me Chords & Tabs

 

Part Of Me Chords & Tabs

Linkin Park Chords & Tabs

Version: 1 Type: Bass Tab 0 ratings
1 star 2 stars 3 stars 4 stars 5 stars
comments

Part Of Me Bass Tab

Band- Linkin Park
Album- Hybrid Theory EP
Song- Part Of Me

Intro: No bass

Verse:
G|----------------------------------------------|
D|----------------------------------------------|
A|---------------6-6----------------------------|
E|----3-3-3-3---------3--3---4-4--6-------------|
B|----------------------------------------------|

G|--------------------------------------------|
D|--------------------------------------------|
A|--------------------------------------------|
E|--------------------------------------------|
B|---3-3-3-3----0-0-0-2----4--4---6-----------|

Pre-chorus:
G|------------------------------------------|
D|------------------------------------------|
A|------------------------------------------|
E|------------------------------------------|
B|-5-4--5-4--5-4--5-4-4-4-5--7--------------|
[ Tab from: http://www.guitartabs.cc/tabs/l/linkin_park/part_of_me_btab.html ]
Chorus:
G|----------------------------------------------------------|
D|----------------------------------------------------------|
A|--------------6-6-6-6-666-------6-6-----------------------|
E|---3-3--3-3------------------3-3------3-3--3-3------------|
B|----------------------------------------------------------|

G|-----------------------------------------------------------|
D|-----------------------------------------------------------|
A|-------------------1-1-----1-------------------------------|
E|--1-1--1-1-11---------1------------------------------------|
B|-----------------------------------------------------------|

G|----------------------------------------------------------|
D|----------------------------------------------------------|
A|--------------6-6-6-6-666-------6-6-----------------------|
E|---3-3--3-3------------------3-3------3-3--3-3------------|
B|----------------------------------------------------------|

G|-----------------------------------------------------------|
D|-----------------------------------------------------------|
A|------------------1-1----1---------------------------------|
E|-----------------------------------------------------------|
B|--3-3--3-3-33-------3--------------------------------------|
G|-----------------------------------------------------------|

Bridge:
E|---4-4-4-4-4-4-4-4-4-4-4-4-4-4-4-4-4-4-4-4-4-4-4-4-4�
Then verse comes in!
Comments