Linkin Park - Papercut Chords & Tabs

 

Papercut Chords & Tabs

Linkin Park Chords & Tabs

Version: 6 Type: Tab 0 ratings
1 star 2 stars 3 stars 4 stars 5 stars
comments

Papercut Tab

Linkin Park: Papercut
Album: Hybrid Theory
Tabed by: Crosby Hass
x4= play four times
m= palm mute
x= mute string

Just play the song in order as I tabed it.
Listen to the song before and after you learn this tab to get the timing right.


Intro
e|10--12--13--12----x4------------------------------------------------------
B|--10--10--10--10----------------------------------------------------------
G|--------------------------------------------------------------------------
D|--------------------------------------------------------------------------
A|--------------------------------------------------------------------------
E|--------------------------------------------------------------------------
Chorus                              *Verse...........................

e|--------------------------------------------------------------------------
B|--------------------------------------------------------------------------
G|--------10-9-5--5-5-------------------------------------------------------
D|--0-0-0--x-x-x--x-x--2-2-2-2------0m-0m-0m--2-2-2-------------------------
A|--0-0-0--8-7-3--3-3--2-2-2-2--x4--0m-0m-0m--2-2-2----3--3-3-3-2-2---------
E|--0-0-0--------------2-2-2-2------0m-0m-0m--2-2-2----1--1-1-1-0-0---------
                      (^ on last time throught dont play the 4 bar chords)

Verse..................................................................
e|--------------------------------------------------------------------------
B|--------------------------------------------------------------------------
G|--------------------------------------------------------------------------
D|-2-2-2----------------------2-2-2-----------------2-2-2-------------------
A|-2-2-2----3--3-3-3-2-2--x3--2-2-2--5--5-5-5-4-4---2-2-2--3--3-3-3-2-2-----
E|-2-2-2----1--1-1-1-0-0------2-2-2--3--3-3-3-0-0---2-2-2--1--1-1-1-0-0-----
[ Tab from: http://www.guitartabs.cc/tabs/l/linkin_park/papercut_tab_ver_6.html ]
Verse continued ..............................................
e|------------------------------------------------------------
B|------------------------------------------------------------
G|------------------------------------------------------------
D|-0m-0m-0m---2-2-2-------------------2-2-2-------------------
A|-0m-0m-0m---2-2-2---3--3-3-3-2-2----2-2-2---3--3-3-3-2-2----
E|-0m-0m-0m---2-2-2---1--1-1-1-0-0----2-2-2---1--1-1-1-0-0----

Chorus                                                   %
e|--------------------------------------------------------------------------
B|--------------------------------------------------------------------------
G|-----10-9-5--5-5----------------------------------------------------------
D|-0-0--x-x-x--x-x-2-2-2-2-0-0-0--------------------------------------------
A|-0-0--8-7-3--3-3-2-2-2-2-0-0-0-----x4--on replay play x8------------------
E|-0-0-------------2-2-2-2-0-0-0--------------------------------------------

Then reply from * symbol to % symbol

e|--------------------------------------------------------------------------
B|--------------------------------------------------------------------------
G|--------------------------------------------------------------------------
D|-0m-0m-0m-2-2-2-----0m-0m-0m-2-2-2-2-2-2-2-2-2-2-2-2-2-2-2-2--------------
A|-0m-0m-0m-2-2-2--x3-0m-0m-0m-2-2-2-2-2-2-2-2-2-2-2-2-2-2-2-2--------------
E|-0m-0m-0m-2-2-2-----0m-0m-0m-2-2-2-2-2-2-2-2-2-2-2-2-2-2-2-2--------------
                               ( ^ play fast)
e|--------------------------------------------------------------------------
B|--------------------------------------------------------------------------
G|---101010-1010/-121212-1212/----------------------------------------------
D|---8-8-8--8-8-/-101010-1010/-x8------------------0m-0m-0m--2-2-2----------
A|---8-8-8--8-8-/-101010-1010/---------------------0m-0m-0m--2-2-2----------
E|-------------------------------------------------0m-0m-0m--2-2-2----------
                             (^ slide into repeats)
End of song

============================================================================
Comments