Linkin Park - Papercut Chords & Tabs

 

Papercut Chords & Tabs

Linkin Park Chords & Tabs

Version: 3 Type: Tab 0 ratings
1 star 2 stars 3 stars 4 stars 5 stars
comments

Papercut Tab

Author/Artist: Linkin Park
Title: Papercut
Album: Hybrid Theory
Transcribed by: Benjamin Seet
Email: cold_static544@yahoo.co.uk

I know there are lots of crappy versions of this tab but i guess this i the real thing.
This tab is more or less very accurate i'm sure about every part except that the chorus 
may need to add some slides or something like that but the raft idea is still there

The guitar's pretty faded so peel your ears for the rhythym

[ Tab from: http://www.guitartabs.cc/tabs/l/linkin_park/papercut_tab_ver_3.html ]
Intro and most part of the song (Guitar 2)
Make sure the overtone is strong
-10-10-12-13-10-10-12-13------------------------------------
-10-10-10-10-10-10-10-10------------------------------------------------------
------------------------------------------------------------------------------
------------------------------------------------------------------------------
------------------------------------------------------------------------------
------------------------------------------------------------------------------
                                                                              
Chorus and Pre-Verse 
------------------------------------------------------------------------------
------------------------------------------------------------------------------
-----------------10-----------------------------------------
-0-0-2-2-3-3-2---10-----------------------------------------
-0-0-2-2-3-3-2---8------------------------------------------
-0-0-2-2-3-3-2----------------------------------------------
                                                                              
Verse (palm-mute)
------------------------------------------------------------------------------
------------------------------------------------------------------------------
------------------------------------------------------------------------------
-0-0-0-8-7-7------------------------------------------------
-0-0-0-8-7-7------------------------------------------------
-0-0-0-8-7-7------------------------------------------------
                                                                              
Pre-Bridge
------------------------------------------------------------------------------
------------------------------------------------------------------------------
------------------------------------------------------------------------------
-0-2-3----0-0-0---------------------------------------------
-0-2-3----0-0-0---------------------------------------------
-0-2-3----0-0-0---------------------------------------------

Bridge

------------------------------------------------------
------------------------------------------------------
------------------------------------------------------
-8-8-8-8-8-8-10-10-10-10-5-5-5-5-5-3-5-5-5-5----------
-8-8-8-8-8-8-10-10-10-10-5-5-5-5-5-3-5-5-5-5----------
-8-8-8-8-8-8-10-10-10-10-5-5-5-5-5-3-5-5-5-5----------
Comments