Linkin Park - Papercut Remix Chords & Tabs

 

Papercut Remix Chords & Tabs

Linkin Park Chords & Tabs

Version: 1 Type: Bass Tab 0 ratings
1 star 2 stars 3 stars 4 stars 5 stars
comments

Papercut Remix Bass Tab

~~~~~~~~~~~~~~~~~~~~~~~~~~~Linkin Park~~~~~~~~~~~~~~~~~~~~~~~~~~

~~~~~~~~~~~~~~~~~~~~~~~~~~~~~Ppr:Kut~~~~~~~~~~~~~~~~~~~~~~~~~~~~

by: Zack Anderson
gb_packers152004@hotmail.com

Intro-Verse 1 
D|-------2---1---| 
A|------2---2----| 
E|---------------|  x12
B|--2~-----------| 

Chorus 
D|--------------------------------| 
A|--------------------------------|  
E|-555555-4-4---------------------|  x3
B|-------------333333-2-2---------| 
Continued...
D|--------------------------------| 
A|--------------2-2-2-4-----------|
E|-555555-4-4---------------------| 
B|---------------------335--------| 
[ Tab from: http://www.guitartabs.cc/tabs/l/linkin_park/papercut_remix_btab.html ]
Verse2 
D|-------2---1-----|------------------------|-------2----1---------| 
A|------2---2------|------------------------|------2----2----------| 
E|-----------------|------------------------|----------------------| 
B|--2~-------------|----2-333-2-2-23-5-3----|--2~------------------| 
   (after chorus)     (between Rasco and        (before chorus)
        x5                Planet Asia)x2              x4       
Continued...
D|----------------------|
A|----------------------|
E|----------------------|
B|----2-333-2-2-23-5-3--|
                     ^ON FOURTH DNT PLAY THIS FRET
Chorus 
D|--------------------------------| 
A|--------------------------------|  
E|-555555-4-4---------------------|  x3
B|-------------333333-2-2---------| 
Continued...
D|--------------------------------| 
A|--------------2-2-2-4-----------|
E|-555555-4-4---------------------| 
B|---------------------335--------| 


Bridge 
D|-------------------------------------------------------------| 
A|-0----------------------------0----------------------------0-| 
E|--5-5-5--5--5---5-5-5-5--5--5--5-2-2-2--2--2--2-2-2-2--2--2--| 
B|-------------------------------------------------------------| X3
Comments