Linkin Park - Papercut Chords & Tabs

 

Papercut Chords & Tabs

Linkin Park Chords & Tabs

Version: 4 Type: Bass Tab 0 ratings
1 star 2 stars 3 stars 4 stars 5 stars
comments

Papercut Bass Tab

   
Papercut by Linkin Park
Standard Tuning

(Intro)
G:--------------
D:--------------  X4
A:-----6-7-6----
E:-9-9-------9-7

G:---------------------------|------------------
D:---------------------------|------------------  
A:----------------12-12-11-11|-------12-12-11-11
E:10-10-12-9-9-9-------------|-9-9-9------------

G:------------------|------------------
D:------------------|------------------
A:-------12-12-11-11|-------12-12-11-11
E:-9-9-9------------|-9-9-9------------

G:---------------------------|------------------
D:---------------------------|------------------  
A:----------------12-12-11-11|-------12-12-11-11
E:10-10-12-9-9-9-------------|-9-9-9------------

G:---------------------------|------------------
D:---------------------------|------------------  
A:----------------12-12-11-11|-------12-12-11-11
E:10-10-12-9-9-9-------------|-9-9-9------------

(Chorus)
G:--------------
D:--------------  X4
A:-----6-7-6----
E:-9-9-------9-7

(Verse)
G:---------------------------|---------------------------
D:---------------------------|---------------------------  
A:----------------12-12-11-11|----------------12-12-11-11
E:10-10-12-9-9-9-------------|-10-10-12-9-9-9------------
[ Tab from: http://www.guitartabs.cc/tabs/l/linkin_park/papercut_btab_ver_4.html ]
G:---------------------------|---------------------------
D:---------------------------|---------------------------  
A:----------------12-12-11-11|----------------12-12-11-11
E:10-10-12-9-9-9-------------|-10-10-12-9-9-9------------

G:---------------------------|------------------
D:---------------------------|------------------  
A:----------------12-12-11-11|-------12-12-11-11
E:10-10-12-9-9-9-------------|-9-9-9------------

G:---------------------------|---------------------------
D:---------------------------|---------------------------  
A:----------------12-12-11-11|----------------12-12-11-11
E:10-10-12-9-9-9-------------|-10-10-12-9-9-9------------

(Chorus)
G:--------------
D:--------------  X8
A:-----6-7-6----
E:-9-9-------9-7

G:---------------
D:---------------  X4
A:---------------
E:-10-10-12-9-9-9

G:----------------------------------------
D:----------------------------------------  X7
A:12-12-12---12-12-14-14---9-9-9---9-9-9-9
E:----------------------------------------

G:-----------------------------------------------
D:-----------------------------------------------
A:12-12-12---12-12-14-14---12-12-12---12-12-14-14
E:-----------------------------------------------

G:--------------------------
D:-------11-----------------
A:-12-11--------------------
E:------------10-10-12-9-9-9

Thanks. Please rate after you learn it.
Tabbed by:
_TheBassist01_
Comments