Linkin Park - One Step Closer Chords & Tabs

 

One Step Closer Chords & Tabs

Linkin Park Chords & Tabs

Version: 9 Type: Tab 0 ratings
1 star 2 stars 3 stars 4 stars 5 stars
comments

One Step Closer Tab

   

Song   - One Step Closer
Artist - Linkin Park
Tab    - Mitch W

TUNING: drop d and down a half step (C#,G#,C#,F#,Bb,Eb)
* = harmonic


INTRO:

Eb|--------------------------------------------|
Bb|--------------------------------------------|
F#|--------------------------------------------|  
C#|--------------------------------------------|
G#|----------*7--------------------------------|
C#|-0--*5-0-----8-7--0-3-----------------------|
   pm    pm         pm

VERSE:
[ Tab from: http://www.guitartabs.cc/tabs/l/linkin_park/one_step_closer_tab_ver_9.html ]
Eb|------------------------------------------------|
Bb|------------------------------------------------|
F#|-------/99-----------5--------------------------|
C#|-0-0---------8-7--------------------------------|
G#|-0-0---/77---8-7-----3--------------------------|
C#|-0-0---------8-7--0-----------------------------|
                                             
BRIDGE 1:
Eb|------------------------------------------------------------|
Bb|------------------------------------------------------------|
F#|------------------------------------------------------------|
C#|-5-5---x-x---x-5-5---x-x---x-5-5--x-x---x-------------------|
G#|-5-5---x-x---x-5-5---x-x---x-5-5--x-x---x-------------------|
C#|-5-5---x-x---x-5-5---x-x---x-5-5--x-x---x-------------------|

BRIDGE 2:

Eb|-----------------------------------*5-*5-------|
Bb|----------------------------------------*5-----|
F#|------------------------------------------*5---|
C#|-5-5---x-x---x-5-5---x-x---x-5-5---------------|
G#|-5-5---x-x---x-5-5---x-x---x-5-5---------------|
C#|-5-5---x-x---x-5-5---x-x---x-5-5---------------|
                                                          
CHORUS:

Eb|-------------------------------------------------|---------------|
Bb|-------------------------------------------------|---------------|
F#|-------------------------------------------------|---------------|
C#|-0--0--12-12-12--10-10--7-7--8-8--5-5--7-7--3-3--|-1-1-1-1-1-1-1-|
G#|-0--0--12-12-12--10-10--7-7--8-8--5-5--7-7--3-3--|-1-1-1-1-1-1-1-|
C#|-0--0--12-12-12--10-10--7-7--8-8--5-5--7-7--3-3--|-1-1-1-1-1-1-1-|

Pre-Chorus Outro thing
     
Eb|-------------------------------------------|
Bb|-------------------------------------------|
F#|-------------------------------------------|
C#|-1-0---0-0---0---1-3-1-0-0--6\------0-0-0--|
G#|-1-0---0-0---0---1-3-1-0-0--6\------0-0-0--|
C#|-1-0---0-0---0---1-3-1-0-0--6\------0-0-0--|
          pm......                     pm...
                                       fourth time

Listen to the song to figure the timeing and placement of whats
above.

Comments