Linkin Park - One Step Closer Chords & Tabs

 

One Step Closer Chords & Tabs

Linkin Park Chords & Tabs

Version: 6 Type: Tab 0 ratings
1 star 2 stars 3 stars 4 stars 5 stars
comments

One Step Closer Tab

   
Linkin Park-One Step Closer


dropped D tuning down a half-step: (Db,Ab,Db,Gb,Bb,Eb)
Personally i play it on drop C: C,G,C,F,a,D

pm-palm muted
n.h.-natural harmonics
*-let ring
/-slide



intro:
								     (play 12x, vocals come in
  p.m_					play 4x             VERSE	after 4th time)
Eb-------------------------------------------------|-------------------------------|
Bb-------------------------------------------------|-------------------------------|
Gb-------------------------------------------------|-----------9*-------------5*---|
Db-------------------------------------------------|--------x--x----8--7------x----|
Ab----------------------7*-------------------------|--0--0--x--7*---8--7---0--3*---|
Db---0----(5)----(7)---------8----(7)----0---3*----|--0--0--x-------8--7---0-------|

			

Eb--------------------------------------------|
Bb--------------------------------------------|
Gb--------------------------------------------|
Db--5--5--x--x---x--5--x--x---x--5--x--x---x--|	after the second verse theres a bunch of quick
Ab--5--5--x--x---x--5--x--x---x--5--x--x---x--| harmonics, not sure where there at
Db--5--5--x--x---x--5--x--x---x--5--x--x---x--|	   
						
[ Tab from: http://www.guitartabs.cc/tabs/l/linkin_park/one_step_closer_tab_ver_6.html ]
chorus
	
play 2x in first chorus, play 4x in second chorus	
Eb------------------------------------------------------------| 
Bb------------------------------------------------------------| in the end of the second chorus 
Gb------------------------------------------------------------| play the last chord 8 times
Db--0--0---0--12*---10--10---7--7--10-10--5--5--7--7--3--3----| 
Ab--0--0---0--12*---10--10---7--7--8--8---5--5--7--7--1--1----| 
Db--0--0---0--12*---10--10-/-7--7--8--8---5--5--7--7--1--1----|


for the interlude play the intro 4x



Bridge

				play 3x				       p.m._______  
Eb------------------------------------------|----------------------------------------|
Bb------------------------------------------|----------------------------------------|
Gb------------------------------------------|----------------------------------------|
Db--1--0---x--x---x--0--3--1--0--6---0--3---|--1--0--x--x---x--0--3--1--0--1--1--0---|
Ab--1--0---x--x---x--0--3--1--0--6---0--3---|--1--0--x--x---x--0--3--1--0--1--1--0---|
Db--1--0---x--x---x--0--3--1--0--6---0--3---|--1--0--x--x---x--0--3--1--0--1--1--0---|


				play 3x				       p.m.__________  
Eb------------------------------------------|-----------------------------------------|
Bb------------------------------------------|-----------------------------------------|
Gb------------------------------------------|-----------------------------------------|
Db--1--0---x--x---x--0--3--1--0--6---0--3---|--1--0--x--x---x--0--3--1--0--0--0--0--0-|
Ab--1--0---x--x---x--0--3--1--0--6---0--3---|--1--0--x--x---x--0--3--1--0--0--0--0--0-|
Db--1--0---x--x---x--0--3--1--0--6---0--3---|--1--0--x--x---x--0--3--1--0--0--0--0--0-|



outro

play the chorus 

Db--3--|
Ab--1--|
Db--1--|   8x after the chorus which all together would be 10x
Comments