Linkin Park - One Step Closer Chords & Tabs

 

One Step Closer Chords & Tabs

Linkin Park Chords & Tabs

Version: 4 Type: Tab 0 ratings
1 star 2 stars 3 stars 4 stars 5 stars
comments

One Step Closer Tab

   
Band: Linkin Park
Album: Hybrid Theory
Song: One Step Closer
Made by Jim Roebuck: For questions or suggestions email 
		           me at(Betteralive10@aol.com)

It sounds fine if the only string you drop in tuning is the low E to 
a C#.  I figured this out and I don’t know if it is accurate, so 
modify what you find necessary. I use an Ibanez smash box distortion 
pedal to play the whole song.  Not really any other effects are 
needed. I recommend that you play along with the cd to get the timing
down.

Riff A (3x)
E --------------------
B --------------------
G --------------------
D --------------------
A ---5---7------------
C#-0---0---8-7-0-3----

RIff B (12x) First three times are louder with less accuracy then A. 
*Very quick slide
E --------------------
B --------------------
G --------------------
D --------------------
A -----*5/7-----0h3---
C#-0-0------8-7-------

Bridge (1x) x=drag pick
E --------------------
B --------------------
G --------------------
D -55-xx-55-xx-55-xx--
A -55-xx-55-xx-55-xx--
C#-55-xx-55-xx-55-xx--

Chorus (2x)
E ----------------------------
B ----------------------------
G ----------------------------
D -00-1212-1010-77-88-55-77-33
A -00-1212-1010-77-88-55-77-33
C#-00-1212-1010-77-88-55-77-33

RIff B (8x)
*Very quick slide
E --------------------
B --------------------
G --------------------
D --------------------
A -----*5/7-----0h3---
C#-0-0------8-7-------

Bridge (1x)
x=drag pick
E --------------------
B --------------------
G --------------------
D -55-xx-55-xx-55-xx--
A -55-xx-55-xx-55-xx--
C#-55-xx-55-xx-55-xx--

Chorus (4x)
E ----------------------------
B ----------------------------
G ----------------------------
D -00-1212-1010-77-88-55-77-33
A -00-1212-1010-77-88-55-77-33
C#-00-1212-1010-77-88-55-77-33
[ Tab from: http://www.guitartabs.cc/tabs/l/linkin_park/one_step_closer_tab_ver_4.html ]
Bridge (1x)
E --------------------
B --------------------
G --------------------
D -3-3-3-3-3-3-3-3----
A -3-3-3-3-3-3-3-3----
C#-3-3-3-3-3-3-3-3----

Riff A (4x)
*Play quietly, but build up on the last time
E --------------------
B --------------------
G --------------------
D --------------------
A ---5---7------------
C#-0---0---8-7-0-3----


Chorus2(ShutUp): This is written out in full.
*There are muted pick drags in between these parts.

E -----------------------(1x)
B -----------------------
G -----------------------
D -1-0---0-2\1-0-6-0-3\2-0
A -1-0---0-2\1-0-6-0-3\2-0
C#-1-0---0-2\1-0-6-0-3\2-0

E -----------------------(2X)
B -----------------------
G -----------------------
D -0-2\1-0-6-0-3\2-0-----
A -0-2\1-0-6-0-3\2-0-----
C#-0-2\1-0-6-0-3\2-0-----

()=play then quickly mute
E ------------------------(1x)
B ------------------------
G ------------------------
D -0-2\1-0-(2)-(2)-(2)-1-0
A -0-2\1-0-(2)-(2)-(2)-1-0
C#-0-2\1-0-(2)-(2)-(2)-1-0

E -----------------------(1x)
B -----------------------
G -----------------------
D -1-0---0-2\1-0-6-0-3\2-0
A -1-0---0-2\1-0-6-0-3\2-0
C#-1-0---0-2\1-0-6-0-3\2-0

E -----------------------(3X)
B -----------------------
G -----------------------
D -0-2\1-0-6-0-3\2-0-----
A -0-2\1-0-6-0-3\2-0-----
C#-0-2\1-0-6-0-3\2-0-----

()=play then quickly mute
E ------------------------(1x)
B ------------------------
G ------------------------
D -0-2\1-0-2-2-2-2--------
A -0-2\1-0-2-2-2-2--------
C#-0-2\1-0-2-2-2-2--------


Chorus (3x)
E ----------------------------
B ----------------------------
G ----------------------------
D -00-1212-1010-77-88-55-77-33
A -00-1212-1010-77-88-55-77-33
C#-00-1212-1010-77-88-55-77-33

End  (1x)                       (PLAY IT LOUD!) 
E -------------------------------------------
B -------------------------------------------
G -------------------------------------------
D -00-1212-1010-77-88-55-77-3-3-3-3-3-3-3-3-0
A -00-1212-1010-77-88-55-77-3-3-3-3-3-3-3-3-0
C#-00-1212-1010-77-88-55-77-3-3-3-3-3-3-3-3-0
Comments