Linkin Park - One Step Closer Chords & Tabs

 

One Step Closer Chords & Tabs

Linkin Park Chords & Tabs

Version: 3 Type: Tab 0 ratings
1 star 2 stars 3 stars 4 stars 5 stars
comments

One Step Closer Tab

   
Linkin Park
One Step Closer
Tabbed By: mjwk_1986@yahoo.com

Tuning: Droppped-D Tuning and tune down one step

Intro and Verses (I cannot take this anymore...)

            (repeat 4 times)           (repeat 4 times)
Eb-------------------------`--------------------------
Bb-------------------------`--------------------------
Gb-------------------------`----------9-----------5---
Db-------------------------`-------x-----8--7---------
Ab-----------7-------------`-0--0--x--7--8--7--0--3---
Db-0-(5)-(7)---8-(7)-0-3---`-0--0--x-----8--7--0------

Just Like Before...

Eb-------------------------------
Bb-------------------------------
Gb-------------------------------
Db-5-5-x-x-x-5-5-x-x-x-5-5-x-x-x-
Ab-5-5-x-x-x-5-5-x-x-x-5-5-x-x-x-
Db-5-5-x-x-x-5-5-x-x-x-5-5-x-x-x-

Chorus (Everything you say to me...)

Eb-------------------------------------------------------------
Bb-------------------------------------------------------------
Gb-------------------------------------------------------------
Db-0-0-0-12-10-10\7-7-10-10-5-5-7-7-3-3------------------------
Ab-0-0-0-12-10-10\7-7--8--8-5-5-7-7-1-1------------------------
Db-0-0-0-12-10-10\7-7--8--8-5-5-7-7-1-1------------------------

Eb-------------------------------------------------------------
Bb-------------------------------------------------------------
Gb-------------------------------------------------------------
Db-0-0-0-12-10-10\7-7-10-10-5-5-7-7-3-3-3-3--------------------
Ab-0-0-0-12-10-10\7-7--8--8-5-5-7-7-1-1-1-1--------------------
Db-0-0-0-12-10-10\7-7--8--8-5-5-7-7-1-1-1-1--------------------
[ Tab from: http://www.guitartabs.cc/tabs/l/linkin_park/one_step_closer_tab_ver_3.html ]
Eb--------------------------------------`----------------------
Bb--------------------------------------`----------------------
Gb--------------------------------------`----------------------
Db-0-0-0-12-10-10\7-7-10-10-5-5-7-7-3-3-`---3-3-3-3-3-3-3-3----
Ab-0-0-0-12-10-10\7-7--8--8-5-5-7-7-1-1-`---1-1-1-1-1-1-1-1----
Db-0-0-0-12-10-10\7-7--8--8-5-5-7-7-1-1-`---1-1-1-1-1-1-1-1----

Interlude (shut up when i am talkin to you)

Eb-------------------------(play 4 times)
Bb-------------------------
Gb-------------------------
Db-------------------------
Ab-----------7-------------
Db-0-(5)-(7)---8-(7)-0-3---

Bridge (Shut up)
              (play 3 times)                                    (play 3 times)
Eb-------------------------`--------------------------------------------------`
Bb-------------------------`--------------------------------------------------`
Gb-------------------------`--------------------------------------------------`
Db-1-0-x-x-x-0-3-1-0-6-0-3-`-1-0-x-x-x-0-3-1-0-1-1-0--1-0-x-x-x-0-3-1-0-6-0-3-`
Ab-1-0-x-x-x-0-3-1-0-6-0-3-`-1-0-x-x-x-0-3-1-0-1-1-0--1-0-x-x-x-0-3-1-0-6-0-3-`
Db-1-0-x-x-x-0-3-1-0-6-0-3-`-1-0-x-x-x-0-3-1-0-1-1-0--1-0-x-x-x-0-3-1-0-6-0-3-`
P.M.                                           .....

Eb---------------------------
Bb---------------------------
Gb---------------------------
Db-1-0-x-x-x-0-3-1-0-0-0-0-0-
Ab-1-0-x-x-x-0-3-1-0-0-0-0-0-
Db-1-0-x-x-x-0-3-1-0-0-0-0-0-
P.M.                 .......

Outro (...Break everything you say to me...)
                        (repeat 2 times)
Eb--------------------------------------`-----------------------
Bb--------------------------------------`-----------------------
Gb--------------------------------------`-----------------------
Db-0-0-0-12-10-10\7-7-10-10-5-5-7-7-3-3-`-3-3-3-3-3-3-3-3-------
Ab-0-0-0-12-10-10\7-7--8--8-5-5-7-7-1-1-`-1-1-1-1-1-1-1-1-------
Db-0-0-0-12-10-10\7-7--8--8-5-5-7-7-1-1-`-1-1-1-1-1-1-1-1-------


P.M. ....=palm mute
 \  = slide down
( ) = natural harmonics
Comments