Linkin Park - One Step Closer Chords & Tabs

 

One Step Closer Chords & Tabs

Linkin Park Chords & Tabs

Version: 2 Type: Tab 0 ratings
1 star 2 stars 3 stars 4 stars 5 stars
comments

One Step Closer Tab

   
Name: Phil Kean

Tabs: Artist: Linkin Park
Title: One Step Closer
Album: Hybrid Theory
Transcribed by: Phil Kean
Email: world_industries56@yahoo.com

*=harmonic

Tuning: Db Ab Db Gb Bb Eb (low to high)

Intro: (palm mute on first note only)

--------------------------------
--------------------------------
--------------------------------
--------------------------------
--------------7-----------------
-0---5*---7*-----8---7*--0---3--
 p.m. Main Riff: 4x

--------------------------------
--------------------------------
-------9--------5---------------
-0-0-x-x--8-7-0-x---------------
-0-0-x-7--8-7-0-3---------------
-0-0-x----8-7-0-----------------

 Verse: 8x (play softer than above)

--------------------------------
--------------------------------
-------9--------5---------------
-0-0-x-x--8-7-0-x---------------
-0-0-x-7--8-7-0-3---------------
-0-0-x----8-7-0-----------------

 Prechorus:               Play last time on 2nd Prechorus
[ Tab from: http://www.guitartabs.cc/tabs/l/linkin_park/one_step_closer_tab_ver_2.html ]
------------------------------------|-x-x--
------------------------------------|-x-x--
------------------------------------|-x-x--
-5-5-x-x--x--5-5-x-x--x--5-5-x-x--x-|------
-5-5-x-x--x--5-5-x-x--x--5-5-x-x--x-|------
-5-5-x-x--x--5-5-x-x--x--5-5-x-x--x-|------

 chorus:

--------------------------------------------
--------------------------------------------
--------------------------------------------
-0-0-12-12-10-10-7-7-10-10-5-5-7-7-3-3------
-0-0-12-12-10-10-7-7-8--8--5-5-7-7-1-1------
-0-0-12-12-10-10-7-7-8--8--5-5-7-7-3-3------

 Bridge: (shut up when i'm talkin' to you)

     Shut Up!                   Shut Up When I'm Takin To you!
----------------------------|---------------------------------
----------------------------|---------------------------------
----------------------------|---------------------------------
-1--0-x-x--x--0-3-1-0-6-0-3-|-1--0-x-x--x--0-3-1-0-1--1-1--0--
-1--0-x-x--x--0-3-1-0-6-0-3-|-1--0-x-x--x--0-3-1-0-1--1-1--0--
-1--0-x-x--x--0-3-1-0-6-0-3-|-1--0-x-x--x--0-3-1-0-1--1-1--0--
                                                     | P.M. |

outro: (same as chrous)                   Last time:

----------------------------------------|----------------------
----------------------------------------|----------------------
----------------------------------------|----------------------
-0-0-12-12-10-10-7-7-10-10-5-5-7-7-3-3--|-3-3-3-3-3-3-3-3------
-0-0-12-12-10-10-7-7-8--8--5-5-7-7-1-1--|-1-1-1-1-1-1-1-1------
-0-0-12-12-10-10-7-7-8--8--5-5-7-7-3-3--|-3-3-3-3-3-3-3-3------
Comments