Linkin Park - One Step Closer Chords & Tabs

 

One Step Closer Chords & Tabs

Linkin Park Chords & Tabs

Version: 14 Type: Tab 0 ratings
1 star 2 stars 3 stars 4 stars 5 stars
comments

One Step Closer Tab

   
Title: One Step Closer
Tunning:Dropped D one half step down
C# G# C# F# A# D#

Intro:
x|-----------------------|x
x|-----------------------|x
x|-----------------------|x
x|-----------------------|x  <---- Play this 4 times.
x|--------*7-------------|x
x|-0-*5-0----8-*7-0-3----|x

then........Verse 1
x|---------------------|x
x|---------------------|x
x|-------9--------5----|x
x|-0-0-0-x--8-7-0-x----|x <----- Play 12 times.
x|-0-0-0-7--8-7-0-3----|x
x|-0-0-0----8-7-0------|x
   
x|------------------|x
x|------------------|x
x|------------------|x
x|-5-5-*5-*5--*5----|x
x|-5-5-*5-*5--*5----|x
x|-5-5-*5-*5--*5----|x
..."Just like before"..       

Chorus
x|--------------------------------|x
x|--------------------------------|x
x|--------------------------------|x
x|-0-0-0-12-10-10-7-10-10-5-7-7-3-|x  <------2 times.
x|-0-0-0-12-10-10-7-8--8--5-7-7-1-|x
x|-0-0-0-12-10-10-7-8--8--5-7-7-1-|x

Verse 2:
x|---------------------|x
x|---------------------|x
x|-------9--------5----|x
x|-0-0-0-x--8-7-0-x----|x <----- Play 8 times
x|-0-0-0-7--8-7-0-3----|x
x|-0-0-0----8-7-0------|x
[ Tab from: http://www.guitartabs.cc/tabs/l/linkin_park/one_step_closer_tab_ver_14.html ]
Chorus:
x|--------------------------------|x
x|--------------------------------|x
x|--------------------------------|x
x|-0-0-0-12-10-10-7-10-10-5-7-7-3-|x  <------4 times.
x|-0-0-0-12-10-10-7-8--8--5-7-7-1-|x
x|-0-0-0-12-10-10-7-8--8--5-7-7-1-|x


   x|----|x        
   x|----|x
   x|----|x
   x|-3--|x   <----8 times.
   x|-1--|x
   x|-1--|x

x|-----------------------|x
x|-----------------------|x
x|-----------------------|x
x|-----------------------|x  <---- Play this 4 times.
x|--------*7-------------|x
x|-0-*5-0----8-*7-0-3----|x

x|-----------------------|x
x|-----------------------|x
x|-----------------------|x
x|-----------------------|x  <---- Play this 4 times.
x|--------*7-------------|x
x|-0-*5-0----8-*7-0-3----|x

continue with:
x|----------------------|x
x|----------------------|x
x|----------------------|x
x|-1-0-0-0-0-0-3-1-0--6-|x   <---8 times.
x|-1-0-0-0-0-0-3-1-0--6-|x
x|-1-0-0-0-0-0-3-1-0--6-|x

continue the song with:
x|--------------------------------|x
x|--------------------------------|x
x|--------------------------------|x
x|-0-0-0-12-10-10-7-10-10-5-7-7-3-|x  <------4 times.
x|-0-0-0-12-10-10-7-8--8--5-7-7-1-|x
x|-0-0-0-12-10-10-7-8--8--5-7-7-1-|x

and finish with:
   x|----|x        
   x|----|x
   x|----|x
   x|-3--|x   <----8 times.
   x|-1--|x
   x|-1--|x
Comments