Linkin Park - One Step Closer Chords & Tabs

 

One Step Closer Chords & Tabs

Linkin Park Chords & Tabs

Version: 13 Type: Tab 0 ratings
1 star 2 stars 3 stars 4 stars 5 stars
comments

One Step Closer Tab

   
Linkin Park One Step Closer.
Tabbed by Mark Waldron mark32@music.com.
  
------------------------------------------------------            Linkin Park - One Step Closer
------------------------------------------------------

Tuning high to low - E B G D A D

|----------------
|----------------
|----------------
|---------------- x4 Palm Mute
|---5---7--------
|-0---0---8-7-0-3

|--------------------------
|--------------------------
|--------------------------
|-0--12--0--14--8--7--0--10 x4
|-0--12--0--14--8--7--0--10
|-0--12--0--14--8--7--0--10

|--------------------------
|--------------------------
|-------------------------- x8 Palm Mute
|-0--12--0--14--8--7--0--10
|-0--12--0--14--8--7--0--10
|-0--12--0--14--8--7--0--10

|------------------------------
|------------------------------
|------------------------------
|-5-5-x-x-x-5-5-x-x-x-5-5-x-x-x
|-5-5-x-x-x-5-5-x-x-x-5-5-x-x-x
|-5-5-x-x-x-5-5-x-x-x-5-5-x-x-x

|---------------------------
|---------------------------
|--------------------------- x2
|-0-0-0-0--10--7--8--5--7--3
|-0-0-0-0--10--7--8--5--7--3
|-0-0-0-0--10--7--8--5--7--3
[ Tab from: http://www.guitartabs.cc/tabs/l/linkin_park/one_step_closer_tab_ver_13.html ]
|--------------------------
|--------------------------
|-------------------------- x8 Palm Mute
|-0--12--0--14--8--7--0--10
|-0--12--0--14--8--7--0--10
|-0--12--0--14--8--7--0--10

|--------------------------
|--------------------------
|-------------------------- x8 Palm Mute
|-0--12--0--14--8--7--0--10
|-0--12--0--14--8--7--0--10
|-0--12--0--14--8--7--0--10

|------------------------------
|------------------------------
|------------------------------
|-5-5-x-x-x-5-5-x-x-x-5-5-x-x-x
|-5-5-x-x-x-5-5-x-x-x-5-5-x-x-x
|-5-5-x-x-x-5-5-x-x-x-5-5-x-x-x

|---------------------------
|---------------------------
|--------------------------- x4
|-0-0-0-0--10--7--8--5--7--3
|-0-0-0-0--10--7--8--5--7--3
|-0-0-0-0--10--7--8--5--7--3

|----------------
|----------------
|----------------
|-1-1-1-1-1-1-1-1
|-1-1-1-1-1-1-1-1
|-1-1-1-1-1-1-1-1

|----------------
|----------------
|---------------- x4 Palm Mute
|----------------
|---5---7--------
|-0---0---8-7-0-3

|----------------------
|----------------------
|---------------------- x8
|-1--0-x-x-x-1--0--6--0
|-1--0-x-x-x-1--0--6--0
|-1--0-x-x-x-1--0--6--0

|---------------------------
|---------------------------
|--------------------------- x4
|-0-0-0-0--10--7--8--5--7--3
|-0-0-0-0--10--7--8--5--7--3
|-0-0-0-0--10--7--8--5--7--3

|----------------
|----------------
|----------------
|-1-1-1-1-1-1-1-1
|-1-1-1-1-1-1-1-1
|-1-1-1-1-1-1-1-1 
:: Ultimate Guitar Archive :: 
http://www.ultimate-guitar.com 

Comments