Linkin Park - One Step Closer Chords & Tabs

 

One Step Closer Chords & Tabs

Linkin Park Chords & Tabs

Version: 12 Type: Tab 0 ratings
1 star 2 stars 3 stars 4 stars 5 stars
comments

One Step Closer Tab

   
	

      ----------------Linkin Park - One Step Closer-----------------




  P.M.   N.H........,                  N.H.               (play 4 times)
1 -------------------------------------------------------------------------|
2 -------------------------------------------------------------------------|
3 -------------------------------------------------------------------------|
4 -------------------------------------------------------------------------|
5 -----------------------7.------------------------------------------------|
6 -0---(5)---------(7)------------8---(7)-------0---3.---------------------|

                                                         (Play 4 times)
1 -------------------------------------------------------------------------|
2 -------------------------------------------------------------------------|
3 -------------------9.-----------------------5.---------------------------|
4 -------------X------------8----7-----------------------------------------|
5 -0---0-------X-----7.-----8----7------0-----3.---------------------------|
6 -0---0-------X------------8----7------0----------------------------------|
   F
  this is the "just like before" part
[ Tab from: http://www.guitartabs.cc/tabs/l/linkin_park/one_step_closer_tab_ver_12.html ]
1 -------------------------------------------------------------------------|
2 -------------------------------------------------------------------------|
3 -------------------------------------------------------------------------|
4 --5----5-----X---X-----X------5----X---X-----X----5---5-----X---X----X---|
5 --5----5-----X---X-----X------5----X---X-----X----5---5-----X---X----X---|
6 --5----5-----X---X-----X------5----X---X-----X----5---5-----X---X----X---|
   MF
     "i need a little room...cuz i'm one step closer..."
                                                   (play about 3 times)
1 --------------------------------------------------------------------------------|
2 --------------------------------------------------------------------------------|
3 --------------------------------------------------------------------------------|
4 -0---0-----0---12.----10---10\----7---7.----10---10-----5---5.----7---7--3---3.-|
5 -0---0-----0---12.----10---10\----7---7.-----8----8-----5---5.----7---7--1---1.-|
6 -0---0-----0---12.----10---10\----7---7.-----8----8-----5---5.----7---7--1---1.-|
   F

	play first bar about 4 times 

   this is the "shut up when i'm talking to you" part
                                                      (play 3 times)
1 -------------------------------------------------------------------------|
2 -------------------------------------------------------------------------|
3 -------------------------------------------------------------------------|
4 -1---0----X---X----X------0---3---1---0----6---0---3---------------------|
5 -1---0----X---X----X------0---3---1---0----6---0---3---------------------|
6 -1---0----X---X----X------0---3---1---0----6---0---3---------------------|
   F
                                           P.M. .....,
1 -------------------------------------------------------------------------|
2 -------------------------------------------------------------------------|
3 -------------------------------------------------------------------------|
4 -1---0----X---X----X----0---3---1---0----1---1---0-----------------------|
5 -1---0----X---X----X----0---3---1---0----1---1---0-----------------------|
6 -1---0----X---X----X----0---3---1---0----1---1---0-----------------------|

   then play everything u say to me part for the rest of the song and ur set 
   that was my first tab and not too bad i don't think
   if u got any questions email me at ski_doo_bean@hotmail.com












Comments