Linkin Park - One Step Closer Chords & Tabs

 

One Step Closer Chords & Tabs

Linkin Park Chords & Tabs

Version: 10 Type: Tab 0 ratings
1 star 2 stars 3 stars 4 stars 5 stars
comments

One Step Closer Tab

   
One Step Closer/Linkin Park.
Tabbed by Adam Wallace Saleener@mailcity.com.
  
Song- One Step Closer
Artist- Linkin Park
Tabbed By- Adam Wallace
E-mail- Saleener@mailcity.com

Tuning- Db Ab Db Gb Bb Eb

()-indicates natural harmonics

Opening Riff
-----------------------------
-----------------------------
-----------------------------
-----------------------------
-----------7-----------------
-0-(5)-(7)----8-(7)-(5)-0----

Verse
-----------------------------
-----------------------------
-----9------5----------------
-0-0-9--8-7-5----------------
-0-0-7--8-7-3----------------
-0-0----8-7------------------
[ Tab from: http://www.guitartabs.cc/tabs/l/linkin_park/one_step_closer_tab_ver_10.html ]
Pre-Chorus
----------------------------------
----------------------------------
----------------------------------
--5-5-x-x-x-5-5-x-x-x-5-5-x-x-x---
--5-5-x-x-x-5-5-x-x-x-5-5-x-x-x---
--5-5-x-x-x-5-5-x-x-x-5-5-x-x-x---

Chorus
---------------------------------------
---------------------------------------
---------------------before the shut up bit only
-0-12-10-7-8-5-7-3---(1-1-1-1-1-1-1-1)-
-0-12-10-7-8-5-7-3---(1-1-1-1-1-1-1-1)-
-0-12-10-7-8-5-7-3---(1-1-1-1-1-1-1-1)-

"Shut Up" Part
----------------------------------
----------------------------------
----------------------------------
-1-0-x-x-0-0h3-0-0-6-0------------
-1-0-x-x-0-0h3-0-0-6-0------------
-1-0-x-x-0-0h3-0-0-6-0------------

That's it. Arrange it yourself cause I'm too damn lazy...

:: Ultimate Guitar Archive :: 
http://www.ultimate-guitar.com
Comments