Linkin Park - One Step Closer Chords & Tabs

 

One Step Closer Chords & Tabs

Linkin Park Chords & Tabs

Version: 1 Type: Tab 3 ratings
1 star 2 stars 3 stars 4 stars 5 stars
comments

One Step Closer Tab

This song is Drop D tuning. Its really easy and brad Delson himself 
told me how to play it so im pretty sure its right anyways here it is

*= artificial harmonic

e--------------------------------------------
B--------------------------------------------
G--------------------------------------------
D--------------------------------------------
A------------------7*----8-------------------
D--0---5*---0--------------8----0-----3------


This is the next part thats heavier
[ Tab from: http://www.guitartabs.cc/tabs/l/linkin_park/one_step_closer_tab.html ]
e--------------------------------------------
B--------------------------------------------
G--------------------------------------------
D----------------7----8----------------------
A---0---5---0----7----8---8----0-----3-------
D---0---5---0-------------8----0-----3-------

This is that pther part like after that

e-------------------------------------------
B-------------------------------------------
G-------------------------------------------
D-------------------------------------------
A--0--0------7-----0--0---------------------
D--0--0--5---------0--0----8---3-------------


this is the "SHUT UP!" part

e-------------------------------------------
B-------------------------------------------
G-------------------------------------------
D-------------------------------------------
A---0--3--0-----(pm)0--(pm)0-----DJ SCRATCHES
D---0--3--0-----(pm)0--(pm)0-----DJ SCRATCHES


this is pretty much the whole song 
Comments