Linkin Park - One Step Closer Chords & Tabs

 

One Step Closer Chords & Tabs

Linkin Park Chords & Tabs

Version: 9 Type: Bass Tab 0 ratings
1 star 2 stars 3 stars 4 stars 5 stars
comments

One Step Closer Bass Tab

   
Song:One step closer.
Album:Hybrid Theory.
Tabbed by: Me [Big Bassman]
  
This is 100% correct cause i play it every week at gigs.
Tuning:C#,A,D,G.
 
Guitar intro

Riff 1 x4

G  ----------------
D  ----------------
A  ------6---------
C# 0-3-0---8-7-0-3-

Riff 2 x4
G  ----------------
D  ----------------
A  ----------------
C# 0-3-----8-7-----

Riff 3 x2
G  -------------------------------
D  -------------------------------
A  -----4--2-2--------------------
C# 0-0--------7--8-8--5--7-7--3---
[ Tab from: http://www.guitartabs.cc/tabs/l/linkin_park/one_step_closer_btab_ver_9.html ]
Riff 2 x4
Riff 3 x4
Riff 4 x3

Riff 5 x1
G  -----------------------------------------------
D  -----------------------------------------------
A  ------4--2-2-----------------------------------
C# 0-0--------7--8-8--5--7-7--3--5-5-5-5-5-5-5-5--

Riff 6 x3
G  ------------------------
D  ------------------------
A  ------------------------
C# 1--0--0--1--0--3--0--5--

Riff 7 x1
G  ------------------------------
D  ------------------------------
A  ------------------------------
C# 1--0--0--1--0--3--0--1-1-1-1--

Riff 6 x3
Riff 7 x1
Riff 4 x3
Riff 5 x1
Comments