Linkin Park - One Step Closer Chords & Tabs

 

One Step Closer Chords & Tabs

Linkin Park Chords & Tabs

Version: 8 Type: Bass Tab 0 ratings
1 star 2 stars 3 stars 4 stars 5 stars
comments

One Step Closer Bass Tab

Artist: Linkin Park
Song: One Step Closer
Album: Hybrid Theory
Written by: Pheonix Pharrell
Tabbed by: Drew Montgomery
E-mail: royalfate@aol.com
Tuning: Drop-D and down 1/2 step(Db-Ab-Db-Gb)

Here is the way Pheonix plays this song. It's really
played on a five string Stingray with a pick, but he
doesn't use the extra string for this song.
God bless and rock on!!!

Intro

Gb|-----------------------------------------------|
Db|-----------------------------------------------|
Ab|--------0--7-----------------------------------|
Db|--0--5--------8--7--0--3-----------------------|

Verse

Gb|--------------------|--------------------------|
Db|--------------------|--------------------------|
Ab|--------0--7--------|--------0--7--------------|
Db|--0--5--------8--7--|--0--5--------8--7--0--3--|
          first part^^^             second part^^^
Pre-Chorus
[ Tab from: http://www.guitartabs.cc/tabs/l/linkin_park/one_step_closer_btab_ver_8.html ]
Gb|-----------------------------------------------|
Db|-----------------------------------------------|
Ab|-----------------------------------------------|
Db|--5-5-5-5-5-5-5-5-5-5-5-5-5-5-5-5--------------|

Chorus

Gb|-----------------------------------------------|
Db|-----------------------------------------------|
Ab|-----------------------------------------------|
Db|--0-0-12-12-10-10-7-7-8-8-5-5-7-7-1-1----------|

Bridge

Gb|-----------------------------------------------|
Db|-----------------------------------------------|
Ab|-----------------------------------------------|
Db|--1-0-0-0--1-0-3-0-6-0-------------------------|

Outro

Gb|-----------------------------------------------|
Db|-----------------------------------------------|
Ab|-----------------------------------------------|
Db|--1-1-1-1-1-1-1-1-1-1--------------------------|

Like I said, it's played with a pick. But it's not
absolutely neccesary, so whichever way you're
feeling it, play it.
Comments