Linkin Park - One Step Closer Chords & Tabs

 

One Step Closer Chords & Tabs

Linkin Park Chords & Tabs

Version: 12 Type: Bass Tab 0 ratings
1 star 2 stars 3 stars 4 stars 5 stars
comments

One Step Closer Bass Tab

Linkin Park- One Step Closer
Dropped D and G tuning.

Intro
(No Bass, only guitar)

Verse

G------------------------------------------------------|
D------------------------------------------------------|
G---------------32-------------------------------- x10-|
D---00--2----------3-----------------------------------|

Chorus

G----------------------------------------------------|
D----------------------------------------------------|
G--------77---55---32--002---------------------------|x2
D----0----------------------------1------------------|

Verse
[ Tab from: http://www.guitartabs.cc/tabs/l/linkin_park/one_step_closer_btab_ver_12.html ]
G------------------------------------------------------|
D------------------------------------------------------|
G---------------32-------------------------------- x10-|
D---00--2----------3-----------------------------------|

Chorus

G----------------------------------------------------|
D----------------------------------------------------|
G--------77---55---32--002---------------------------|x4
D----0----------------------------1------------------|

Bridge

G----------------------------------------------------|
D----------------------------------------------------|
G------------------------1---------------------------|x7
D-----1--3--1---1310---------------------------------|

(Immediately runs into the chorus)

Chorus

G----------------------------------------------------|
D----------------------------------------------------|
G--------77---55---32--002---------------------------|x4
D----0----------------------------1------------------|
Comments