Linkin Park - One Step Closer Chords & Tabs

 

One Step Closer Chords & Tabs

Linkin Park Chords & Tabs

Version: 1 Type: Bass Tab 1 rating
1 star 2 stars 3 stars 4 stars 5 stars
comments

One Step Closer Bass Tab

one step closer

Intro

 1:---------56-------------
 2:-44--46------47---------
 3:------------------------
 4:------------------------

Verse#1

 1:-54---------------------
 2:-44---------------------
 3:------------------------
 4:------------------------
[ Tab from: http://www.guitartabs.cc/tabs/l/linkin_park/one_step_closer_btab.html ]
Chorus repeat once

 1:------------455--2--440-
 2:-44-4-22----------------
 3:------------------------
 4:------------------------

Bridge repeat once

 1:------------------------
 2:-54----44-7-------------
 3:------------------------
 4:------------------------
Comments