Linkin Park - Numb Chords & Tabs

 

Numb Chords & Tabs

Linkin Park Chords & Tabs

Version: 7 Type: Tab 0 ratings
1 star 2 stars 3 stars 4 stars 5 stars
comments

Numb Tab

   
                  Linkin Park - Numb
                  Meteora - Book Tablature Edition

Title: Numb                        ||  = Cancel/End
Album: Meteora                     |   = part  
Artist: Linkin Park                :|| = Repeat verse 
                                         X number of times
Slow Rock                          /   = verse continued
Electric Guitar                    
Drop D, Down Half Step: (6)C# (5)G# (4)C# (3)F# (2)A# (1)D#     

1.Intro I: Arranged for Guitar                            
D#-(---------15)-18-17--(---------18)-17----------------|    
A#-(15-18-15---)--------(15-18-15---)----18--15-18-15---|
F#------------------------------------------------------|        
C#------------------------------------------------------|
G#------------------------------------------------------|
C#------------------------------------------------------|

2.Harmonics: Arranged for Guitar
D#--10--------------10---------------------------------:||X3
A#--------8----8----------8----8------------------------|
F#------------------------------------------------------|
C#------------------------------------------------------|
G#------------------------------------------------------|
C#------------------------------------------------------|
[ Tab from: http://www.guitartabs.cc/tabs/l/linkin_park/numb_tab_ver_7.html ]
3.Intro II/Chorus    4.Breakdown                    
D#---------------:||Xx----------------------------------/
A#-------------------|----------------------------------/
F#-------------------|----------------------------------/
C#--5----1----3----3-|-1-----3-------5----7--8----0--1--/
G#--5----1----1----3-|-1-----3-------5----7--8----0--1--/        
C#--5----1----3----3-|-1-----3-------5----7--8----0--1--/
                  you. And I know_. I may end_. up  fail - ing too_
D#------------------------------------------------------|
A#------------------------------------------------------|
F#------------------------------------------------------|
C#-------3-------0-------------------0---------------0--|
G#-------3-------0-------------------0---------------0--|
C#-------3-------0-------------------0---------------0--|
   but I know_ you were just like_ me_ with someone dis - a - pointed in you__.

5.Outro: Arranged for Guitar
D#--15--18-17--(---------18)-17------------------------||    
A#-------------(15-18-15---)----18---------------------||
F#-----------------------------------------------------||        
C#-----------------------------------------------------||
G#-----------------------------------------------------||
C#-----------------------------------------------------||



Intstruction:


I. Intro

II. Intro II (play once)

III. Rest (play the harmonics verse when Mike says "caught in the undertoe, just
caught in the undertoe".)

IV. Harmonics (play when phrase "caught in the undertoe, 
just caught in the undertoe" is said. Repeat three times, then go into chorus.)

V. Chorus (repeat as many times at repeated in the song. Play when the
phrase "I've become so numb" is said, end and rest when Chester sings "Can't you see that
that your smothering me.")

VI. Rest (play the harmonics verse when Mike says "caught in the undertoe, just
caught in the undertoe".)

VII. Harmonics (play when phrase "caught in the undertoe, 
just caught in the undertoe" is said. Repeat three times, then go into chorus.)

VIII. Chorus (repeat as many times at repeated in the song. Play when the
phrase "I've become so numb" is said, end and play the Breakdown Verse when 
Chester sings "And I know")

IX. Breakdown (play along the lyrics as they are sung, then play chorus when
the phrase "I've become so numb" is sung)

X. Chorus (repeat as many times at repeated in the song. Play when the
phrase "I've become so numb" is said, end and play the Outro verse when the phrase
"I'm tired of being what you want me to be" is sung)

XI. Outro
Comments