Linkin Park - Numb Chords & Tabs

 

Numb Chords & Tabs

Linkin Park Chords & Tabs

Version: 6 Type: Tab 0 ratings
1 star 2 stars 3 stars 4 stars 5 stars
comments

Numb Tab

LINKIN PARK - Numb
TUNING: Drop D, down 1/2 step

Intro (keyboard)
Eb|---------15-18-17|---------18-17---|--------|-----------------------------
Bb|15-18-15---------|15-18-15-------18|15-18-15|-----------------------------
Gb|--------------------------------------------------------------------------
Db|--------------------------------------------------------------------------
Ab|--------------------------------------------------------------------------
Db|--------------------------------------------------------------------------

Intro/chorus (guitar)
Eb|--------------------------------------------------------------------------
Bb|--------------------------------------------------------------------------
Gb|--------------------------------------------------------------------------
Db|5-5-5--5-5-5|1-1-1--1-1-1|8-8-8--8-8-8|3-3-3--3-3-3|----------------------
Ab|5-5-5--5-5-5|1-1-1--1-1-1|8-8-8--8-8-8|3-3-3--3-3-3|----------------------
Db|5-5-5--5-5-5|1-1-1--1-1-1|8-8-8--8-8-8|3-3-3--3-3-3|----------------------

Verse
Eb|--------------------------------------------------------------------------
Bb|--------------------------------------------------------------------------
Gb|--------------------------------------------------------------------------
Db|--------------------------------------------------------------------------
Ab|--------------------------------------------------------------------------
Db|5-----------|1-----------|8-----------|3-----------|----------------------

Repeat verse

Prechorus 1
Eb|---10|---10|---10|10----10|---10|---10|-----------------------------------
Bb|11---|10---|11---|---11---|11---|10---|-----------------------------------
Gb|--------------------------------------------------------------------------
Db|--------------------------------------------------------------------------
Ab|--------------------------------------------------------------------------
Db|--------------------------------------------------------------------------

Repeat chorus
[ Tab from: http://www.guitartabs.cc/tabs/l/linkin_park/numb_tab_ver_6.html ]
Verse 2
Eb|---10---|---10---|---10---|---10---|--------------------------------------
Bb|11------|11------|13------|10------|--------------------------------------
Gb|------12|------12|------12|------12|--------------------------------------
Db|--------------------------------------------------------------------------
Ab|--------------------------------------------------------------------------
Db|--------------------------------------------------------------------------

Repeat verse 2

Prechorus 2
Eb|---10---|---10---|---10---|---10---|--------------------------------------
Bb|11------|10------|11------|10------|--------------------------------------
Gb|------12|------12|------12|------12|--------------------------------------
Db|--------------------------------------------------------------------------
Ab|--------------------------------------------------------------------------
Db|--------------------------------------------------------------------------

Repeat prechorus 2

Bridge pt. 1
Eb|--------------------------------------------------------------------------
Bb|--------------------------------------------------------------------------
Gb|--------------------------------------------------------------------------
Db|1-1-1--1-1-1|3-3-3--3-3-3|5-5-5--7-7-7|8-8-8--0-0-0|----------------------
Ab|1-1-1--1-1-1|3-3-3--3-3-3|5-5-5--7-7-7|8-8-8--0-0-0|----------------------
Db|1-1-1--1-1-1|3-3-3--3-3-3|5-5-5--7-7-7|8-8-8--0-0-0|----------------------

Repeat bridge pt.1

Bridge pt. 2
Eb|--------------------------------------------------------------------------
Bb|--------------------------------------------------------------------------
Gb|--------------------------------------------------------------------------
Db|1-1-1--1-1-1|3-3-3--3-3-3|0-0-0--0-0-0|0-0-0--0-0-0|0-0-0--0-0-0|---------
Ab|1-1-1--1-1-1|3-3-3--3-3-3|0-0-0--0-0-0|0-0-0--0-0-0|0-0-0--0-0-0|---------
Db|1-1-1--1-1-1|3-3-3--3-3-3|0-0-0--0-0-0|0-0-0--0-0-0|0-0-0--0-0-0|---------

Repeat chorus twice
Repeat intro (keyboard)
Comments