Linkin Park - Numb Chords & Tabs

 

Numb Chords & Tabs

Linkin Park Chords & Tabs

Version: 4 Type: Tab 0 ratings
1 star 2 stars 3 stars 4 stars 5 stars
comments

Numb Tab

-------------------------------------------------------------------------------
			       Numb - Linkin Park
-------------------------------------------------------------------------------

Tabbed by: Pryftan
Email: mmisbetterthenyou@hotmail.com
Album: Meteora.

Tuning: Drop Db.
[ Tab from: http://www.guitartabs.cc/tabs/l/linkin_park/numb_tab_ver_4.html ]
Chorus chords:
Eb|---------------|
Bb|---------------|
Gb|---------------|
Db|--5--1--8--3---|
Ab|--5--1--8--3---|
Db|--5--1--8--3---|

Bridge, comes in after the second chorus:
Eb|-----------------------------|
Bb|-----------------------------|
Gb|-----------------------------|
Db|--1--3--5-7-8-7-1--3--0--0---|
Ab|--1--3--5-7-8-7-1--3--0--0---|
Db|--1--3--5-7-8-7-1--3--0--0---|
Comments