Linkin Park - Numb Chords & Tabs

 

Numb Chords & Tabs

Linkin Park Chords & Tabs

Version: 2 Type: Tab 20 ratings
1 star 2 stars 3 stars 4 stars 5 stars
comments

Numb Tab

   
Linkin Park Numb meteora album
 Transcribed by Josh macedo and fabian alvarado
Jan.1st 2004

Regular Tuning

Intro
E---0---2--5-4------0---5-4-0
B-2---2-----------2---2------
G----------------------------
D----------------------------
A----------------------------
E----------------------------


Verses X2

F#m	D	A	E     

E-2-----2-------0-------0
B-2-----3-------2-------0
G-2-----2-------2-------1
D-4-----0-------2-------2
A-4-------------0-------2	
E-2---------------------0


pre-chorus X2
[ Tab from: http://www.guitartabs.cc/tabs/l/linkin_park/numb_tab_ver_2.html ]
D	E	F#m	A

E-2-----0-------2------0
B-3-----0-------2------2
G-2-----1-------2------2
D-0-----2-------4------2
A-------2-------4------0
E-------0-------2------0


Chorus

F#m	D	A	E

E-2-----2-------0-------0
B-2-----3-------2-------0
G-2-----2-------2-------1
D-4-----0-------2-------2
A-4-------------0-------2	
E-2---------------------0


Bridge
D	E	F#m	A

E-2-----0-------2------0
B-3-----0-------2------2
G-2-----1-------2------2
D-0-----2-------4------2
A-------2-------4------0
E-------0-------2------0
Comments