Linkin Park - Numb Chords & Tabs

 

Numb Chords & Tabs

Linkin Park Chords & Tabs

Version: 13 Type: Tab

Numb Tab

Linkin Park
:Numb:


----------15-18-17----------17-16--------------15----|
b-15-18-15----------18-15-18-------18--15-18-15------|
g----------------------------------------------------|
d----------------------------------------------------|
a----------------------------------------------------|
e----------------------------------------------------|

e---------------------------------------------------------|
b-15-15-15-15-16-15-13-11---15-15-13-11-13---15-13-11-13--|
g---------------------------------------------------------|
d---------------------------------------------------------|
a---------------------------------------------------------|
e---------------------------------------------------------|

e--------------------------------------------------------------------|
b----15-15-15-15-16-15-15-13-11--15-13-11-11-11-11--15-13-11-13-15---|
g-12-----------------------------------------------------------------|
d--------------------------------------------------------------------|
a--------------------------------------------------------------------|
e--------------------------------------------------------------------|


e--------------15-15-13-----------------15-15-13-------13----|
b--------15-15----------15-15-15-15--------------15-16-------|
g-12-x8------------------------------------------------------|
d------------------------------------------------------------|
a------------------------------------------------------------|
e------------------------------------------------------------|


e------------------------15-15-13----------------17-16-17-17-16-16--|
b-12-x8--15-15-15-15---------------15-15-15-15----------------------|
g-------------------------------------------------------------------|
d-------------------------------------------------------------------|
a-------------------------------------------------------------------|
e-------------------------------------------------------------------|


e-15-15-15-13-15-15-15-15-17-13-15-15-13-15-15-15-13-15-15-15-17-13--|
b--------------------------------------------------------------------|
g--------------------------------------------------------------------|
d--------------------------------------------------------------------|
a--------------------------------------------------------------------|
e--------------------------------------------------------------------|

[ Tab from: http://www.guitartabs.cc/tabs/l/linkin_park/numb_tab_ver_13.html ]
e-15-15-13-15---15-13-15-13-13-15-13-13-13--------------------------------|
b------------------------------------------15-16-15-13-15-15----15-15-15--|
g------------------------------------------------------------12-----------|
d-------------------------------------------------------------------------|
a-------------------------------------------------------------------------|
e-------------------------------------------------------------------------|


e----------------------------------------------------------------|
b-15-16-15-15-13-11--15-13-11-11-11-11--15-13-11-13-15-----------|
g--------------------------------------------------------12-x8---|
d----------------------------------------------------------------|
a----------------------------------------------------------------|
e----------------------------------------------------------------|


e--------15-15-13------------------15-15-13-------13-------------|
b--15-15------------15-15-15----------------15-16----------------|
g----------------------------------------------------------------|
d----------------------------------------------------------------|
a----------------------------------------------------------------|
e----------------------------------------------------------------|

e------------------------15-15-13--------------17-16-17-17-16-16----|
b----------15-15-15---------------15-15-15-15-----------------------|
g-12-x8-------------------------------------------------------------|
d-------------------------------------------------------------------|
a-------------------------------------------------------------------|
e-------------------------------------------------------------------|


e-15-15-15-13-15-15-15-15-17-13-15-15-13-15-15-15-13-15-15-15-17-13--|
b--------------------------------------------------------------------|
g--------------------------------------------------------------------|
d--------------------------------------------------------------------|
a--------------------------------------------------------------------|
e--------------------------------------------------------------------|


e-----------------------------------15-17-16------13----17-16-13----|
b--15-15-15-15-16-15-15-13-11------------------15----15-------------|
g-------------------------------------------------------------------|
d-------------------------------------------------------------------|
a-------------------------------------------------------------------|
e-------------------------------------------------------------------|


e-----13----15---------------|
b--15----15------------------|
g----------------------------|
d----------------------------|
a----------------------------|
e----------------------------|