Linkin Park - Numb Chords & Tabs

 

Numb Chords & Tabs

Linkin Park Chords & Tabs

Version: 12 Type: Tab 0 ratings
1 star 2 stars 3 stars 4 stars 5 stars
comments

Numb Tab

Band-Linkin Park
#############################################################################
Song-Numb
#############################################################################
Tabbed By SD

\=slide
H=Hold note

Intro
e|---------------------------------------     --------|
B|---------------------------------------     --------|
G|----5---7--10\9------5---10--9\5------- X2  ---5--7-|
D|--7---7------------7---7---------------     -7--7---|
A|---------------------------------------     --------|
E|---------------------------------------     --------|

Vers 1
e|---------------------------------------------------------|
B|--10-10-10-10-11-10-10-8-6-10-10-8-6-8--8-10-10-8-6-8----|
G|---------------------------------------------------------|
D|---------------------------------------------------------|
A|---------------------------------------------------------|
E|---------------------------------------------------------|

Vers 2
e|------------------------------------------------------------------------ |
B|--10-10-10-10-11-10-10-8-6--8-10-10-8-6-8-8-10-8\6-8-H10-  ------------- |Continue
G|---------------------------------------------------------             -- |
D|---------------------------------------------------------             -- |
A|---------------------------------------------------------             -- |
E|------------------------------------------------------------------------ |             /
                                                                       /
e|----------------------------10-10-8---------------10-8---------------|
B|----------------------10-10---------10---10-10-10------10-8-H10------|
G|-7-7-7-7-7-7-7-7-7-7-------------------------------------------------|
D|---------------------------------------------------------------------|
A|---------------------------------------------------------------------|
E|---------------------------------------------------------------------|

e|----------------------|
B|----------------------|
G|-7-7-7-7-7-7-7-7-7-7--|
D|----------------------|
A|----------------------|
E|----------------------|

Chorus
e|---------------------------------------------------------------------|
B|---------------------------------------------------------------------|
G|-7----7-7--5--7--7-7-7--9--5---7-7-7--5--7--7-7-7--5--7--------------|
D|-7----7-7--5--7--7-7-7--9--5---7-7-7--5--7--7-7-7--5--7--------------| X2
A|-5----5-5--3--5--5-5-5--7--3---5-5-5--3--5--5-5-5--3--5--------------|
E|---------------------------------------------------------------------|

Vers 3
e|--------------------------------------------------------------------------|
B|-10-10-10-10-8-10-10-8-6--10-10-8-6-8--8-10-8-6-8-10--8-10-10-10-10-11-10-|
G|--------------------------------------------------------------------------|
D|--------------------------------------------------------------------------|
A|--------------------------------------------------------------------------|
E|--------------------------------------------------------------------------|
[ Tab from: http://www.guitartabs.cc/tabs/l/linkin_park/numb_tab_ver_12.html ]
e|--------------------------------------------------------------10-10-8-|
B|-10-8-6--8-10-10-8-6--10-8\6-8-H10----------------------10-10---------|
G|-----------------------------------7-7-7-7-7-7-7-7-7-7----------------|
D|----------------------------------------------------------------------|
A|----------------------------------------------------------------------|
E|----------------------------------------------------------------------|

e|-------------10-8------------------------------------------10-10-8----|
B|-10--10-10-10------10-8-H10-----------------------10-10-10---------10-|
G|----------------------------7-7-7-7-7-7-7-7-7-7-----------------------|
D|----------------------------------------------------------------------|
A|----------------------------------------------------------------------|
E|----------------------------------------------------------------------|

e|----------13-12-13-12--------|
B|-10-10-10--------------------|
G|-----------------------------|
D|-----------------------------|
A|-----------------------------|
E|-----------------------------|

(CHORUS)

Listen to the song for this one,stroke every time he strokes
 Vers 4
e|-------------------------------------------------------|
B|-------------------------------------------------------|
G|-7-------------9------------5------------7-------------|
D|-7-------------9------------5------------7-------------|   X2
A|-5-------------7------------3------------5-------------|
E|-------------------------------------------------------|
.............................................................................

Intro

i'm tired of being what you want me to be  (
feeling so faithless                        )-Vers 1
lost under the surface                     (


i don't know what you're expecting of me                 )
put under the pressure                                  (
of walking in your shoes                                 )Vers 2
[caught in the undertow / just caught in the undertow]  (
every step that i take is another mistake to you         )


i've                     )
become so numb          (
i can't feel you there   )
become so tired         (
so much more aware       )Chorus
i'm becoming this       (
all i want to do         )
is be more like me      (
and be less like you     )


can't you see that you're smothering me                  )
holding too tightly                                     (
afraid to lose control                                   )
cause everything that you thought i would be            (
has fallen apart right in front of you                   )Vers 3
[caught in the undertow / just caught in the undertow]  (
every step that i take is another mistake to you         )
caught in the undertow / just caught in the undertow]   (
and every second i waste is more than i can take         )

but i know                        )
i may end up failing too         (
but i know                        )Vers 4
you were just like me            (
with someone disappointed in you  )


Play Intro Again
Comments