Linkin Park - Numb Chords & Tabs

 

Numb Chords & Tabs

Linkin Park Chords & Tabs

Version: 4 Type: Bass Tab 0 ratings
1 star 2 stars 3 stars 4 stars 5 stars
comments

Numb Bass Tab

   
Tuning: Db Ab Db Gb

-Intro-
Gb|-------------------------------|
Db|-------------------------------|
Ab|-------------1----------7------|
Db|-5-----1-----------3-----------|

-Verse-
Gb|-------------------------------|
Db|-------------------------------|
Ab|-5-----------8-----------------| (x2)
Db|-------6-----------8-----------|

-Pre Chorus-
Gb|-------------------------------|
Db|-------5-------7--5-----7------|
Ab|-6-------8---------------------|
Db|-------------------------------|

Gb|-------------------------------|
Db|-8---------------5-------------|
Ab|------5----6-------8-----------|
Db|-------------------------------|

-Chorus-
Gb|--------------------------|
Db|--------------------------|
Ab|-------------1------------| (x2)
Db|-5-----1-----------3----0-|
[ Tab from: http://www.guitartabs.cc/tabs/l/linkin_park/numb_btab_ver_4.html ]
Gb|-------------------------------|
Db|-------------------------------|
Ab|------7------------------------|
Db|-3-----------------------------|

-Verse-
-Pre Chorus-
-Chorus- 
-Bridge-
Gb|-------------------------------|
Db|-------------------------------|
Ab|----------------0---1----------|
Db|-1-----3-----5----------0------|

Gb|---------------------------------------|
Db|---------------------------------------|
Ab|---------------------------------------|
Db|-1-----3-----0-----0----3/12---10--12\-|

-3rd Chorus-
Gb|-------------------------|
Db|-------------------------|
Ab|-------------1-----------| (x2)
Db|-5-----1-----------3---3-|

Gb|-------------------------------------|
Db|-------------------------------------|
Ab|-3--------3--------------1-----------| (x2)
Db|----3--3-----5-----1-----------3---3-|

Gb|----------|
Db|----------|
Ab|----------|
Db|-3----333-|
Comments