Linkin Park - Numb Chords & Tabs

 

Numb Chords & Tabs

Linkin Park Chords & Tabs

Version: 3 Type: Bass Tab 0 ratings
1 star 2 stars 3 stars 4 stars 5 stars
comments

Numb Bass Tab

Linkin Park- Numb (Bassline)
Album: Meteora
Written by: Phoenix (Dave Ferrel)
Tabber: Bassist15

Normal tuning (EADG)

This tab is 99% correct!

Intro: x1 (0:12)
G--------------------------------
D--------------------------------
A----------5---------------------
E--2--------------5---------0---4

Verse: x2 (0:21)
G----------------------------
D----------------------------
A---------5------------------
E--2--------------5--------0-

Pre-Chorus: (0:38) x1
G---------------------------------------
D---------------------------------------
A--5--9--7--11--9--11--12--44--5--9--7--
E---------------------------------------

Chorus: x1 (0:51)
G-------------------------------
D-------------------------------
A----------5--------------------
E--2--------------5---------0---

G------------------------------------
D------------------------------------
A----------5-------------------------
E--2--------------5---------0------4-
[ Tab from: http://www.guitartabs.cc/tabs/l/linkin_park/numb_btab_ver_3.html ]
Verse: x2 (1:09)
G----------------------------
D----------------------------
A---------5------------------
E--2--------------5--------0-

Pre-Chorus: (1:26) x1
G----------------------------------------------------
D----------------------------------------------------
A--5--9-7--11-9--11-12--44--5--9-7--11-9--11-12--4---
E----------------------------------------------------

Chorus: x2 (1:44)
G-------------------------------
D-------------------------------
A----------5--------------------
E--2--------------5---------0---

Bridge: x1 (2:01)
G--------------------------------------
D--------------------------------------
A--5--5--5---7--7--7---9--9--11--12--4-
E--------------------------------------

G--------------------------------------
D--------------------------------------
A--5--5--7--7--4--4--4-4/11-11--9-9--6-
E--------------------------------------

Chorus: x4 (2:21)
G-------------------------------
D-------------------------------
A----------5--------------------
E--2--------------5---------0---


Easy Song.
Enjoy!
Comments