Linkin Park - Nobodys Listening Chords & Tabs

 

Nobodys Listening Chords & Tabs

Linkin Park Chords & Tabs

Version: 2 Type: Tab 0 ratings
1 star 2 stars 3 stars 4 stars 5 stars
comments

Nobodys Listening Tab

Song: Nobody's Listening
Artist: Linkin Park
Album: Meteora (2003)
As tabbed by Gary666

Dropped D and tuned down a step (Dropped C)


Verse
d-------19--------19-19h20p19--------------------------------|
A--17---------------------------17--17--18--20\17------------|
F------------16-------------------------------------16-------|
C------------------------------------------------------------|
G------------------------------------------------------------|
C------------------------------------------------------------|
[ Tab from: http://www.guitartabs.cc/tabs/l/linkin_park/nobodys_listening_tab_ver_2.html ]
(continued)
d--19-19h20p19-----------------------------------------------|
A------------------------------------------------------------|
F------------------------------------------------------------|
C------------------------------------------------------------|
G------------------------------------------------------------|
C------------------------------------------------------------|


Chorus (palm muted)
d------------------------------------------------------------|
A------------------------------------------------------------|
F------------------------------------------------------------|
C--2-2---2-2----3-3---3-3----2-2---2-2----0-0---3-3----------|
G--2-2---2-2----3-3---3-3----2-2---2-2----0-0---3-3----------|
C--2-2---2-2----3-3---3-3----2-2---2-2----0-0---3-3----------|


Bridge
d------------------------------------------------------------|
A------------------------------------------------------------|
F------------------------------------------------------------|
C--2-2---2-2----------3-3----2-2---2-2----------3-3----------|
G--2-2---2-2----------3-3----2-2---2-2----------3-3----------|
C--2-2---2-2----------3-3----2-2---2-2----------3-3----------|

Riff
Chorus, Riff
Riff
Chorus, Riff
Riff
Chorus, Riff
Bridge
Riff
Comments