Linkin Park - Nobodys Listening Chords & Tabs

 

Nobodys Listening Chords & Tabs

Linkin Park Chords & Tabs

Version: 1 Type: Bass Tab 0 ratings
1 star 2 stars 3 stars 4 stars 5 stars
comments

Nobodys Listening Bass Tab

Band- Linkin Park
Album- Meteora
Song- Nobody's Listening

Bass (Phoenix)
                                                                                
G||------|------|------|------|------|------|------|------|------|------|------|
D||------|------|------|------|------|------|------|------|------|------|------|
A||------|------|------|------|------|------|------|------|------|------|------|
E||------|------|------|------|------|------|------|------|------|------|------|
A||------|------|------|------|------|------|------|------|------|------|------|


                                                                              
------|------|------|------|------|----------------------|-------------------|
------|------|------|------|------|----------------------|-------------------|
------|------|------|------|------|----------------------|-------------------|
------|------|------|------|------|----------------------|-------------------|
------|------|------|------|------|--5--5---5---5--------|--6----------------|


                                                                     
----------------------|----------------------|----------------------|
----------------------|----------------------|----------------------|
----------------------|----------------------|----------------------|
----------------------|----------------------|----------------------|
--5--5---5---5--------|--3--3-----6---6------|--5--5---5---5--------|


                                                                  
-------------------|----------------------|----------------------|
-------------------|----------------------|----------------------|
-------------------|----------------------|----------------------|
-------------------|----------------------|----------------------|
--6----------------|--5--5---5---5--------|--3--3-----6---6------|


                                                                   
---------------------|---------------------|----------------------|
---------------------|---------------------|----------------------|
---------------------|---------------------|----------------------|
---------------------|---------------------|----------------------|
--5----5----5--------|----5-----5---5------|--5--5---5---5--------|


                                                                 
-------------------|----------------------|---------------------|
-------------------|----------------------|---------------------|
-------------------|----------------------|---------------------|
-------------------|----------------------|---------------------|
----5--------------|--5--5---5---5--------|----5-----5---5------|


                                                                    
----------------------|---------------------|----------------------|
----------------------|---------------------|----------------------|
----------------------|---------------------|----------------------|
----------------------|---------------------|----------------------|
--5--5---5---5--------|----5-----5---5------|--5--5---5---5--------|


                                                                    
---------------------|----------------------|----------------------|
---------------------|----------------------|----------------------|
---------------------|----------------------|----------------------|
---------------------|----------------------|----------------------|
----5-----5---5------|--5--5---5---5--------|----5-----5---5--5----|

[ Tab from: http://www.guitartabs.cc/tabs/l/linkin_park/nobodys_listening_btab.html ]
                                                                  
----------------------|-------------------|----------------------|
----------------------|-------------------|----------------------|
----------------------|-------------------|----------------------|
----------------------|-------------------|----------------------|
--5--5---5---5--------|--6----------------|--5--5---5---5--------|


                                                                  
----------------------|----------------------|-------------------|
----------------------|----------------------|-------------------|
----------------------|----------------------|-------------------|
----------------------|----------------------|-------------------|
--3--3-----6---6------|--5--5---5---5--------|--6----------------|


                                                                            
----------------------|----------------------|----|----|----|----|----|----|
----------------------|----------------------|----|----|----|----|----|----|
----------------------|----------------------|----|----|----|----|----|----|
----------------------|----------------------|----|----|----|----|----|----|
--5--5---5---5--------|--3--3-----6---6------|----|----|----|----|----|----|


                                                               
----|----|----|----|----------------------|-------------------|
----|----|----|----|----------------------|-------------------|
----|----|----|----|----------------------|-------------------|
----|----|----|----|----------------------|-------------------|
----|----|----|----|--5--5---5---5--------|--6----------------|


                                                                     
----------------------|----------------------|----------------------|
----------------------|----------------------|----------------------|
----------------------|----------------------|----------------------|
----------------------|----------------------|----------------------|
--5--5---5---5--------|--3--3-----6---6------|--5--5---5---5--------|


                                                                  
-------------------|----------------------|----------------------|
-------------------|----------------------|----------------------|
-------------------|----------------------|----------------------|
-------------------|----------------------|----------------------|
--6----------------|--5--5---5---5--------|--3--3-----6---6------|


                                                                  
----------------------|-------------------|----------------------|
----------------------|-------------------|----------------------|
----------------------|-------------------|----------------------|
----------------------|-------------------|----------------------|
--5--5---5---5--------|--6----------------|--5--5---5---5--------|


                                                                  
----------------------|----------------------|-------------------|
----------------------|----------------------|-------------------|
----------------------|----------------------|-------------------|
----------------------|----------------------|-------------------|
--3--3-----6---6------|--5--5---5---5--------|--6----------------|


                                                                   
----------------------|----------------------|--------------------|
----------------------|----------------------|--------------------|
----------------------|----------------------|--------------------|
----------------------|----------------------|--------------------|
--5--5---5---5--------|--3--3-----6---6------|--5------------5----|


                                                                 
-------------------|----------------------|--------------------||
-------------------|----------------------|--------------------||
-------------------|----------------------|--------------------||
-------------------|----------------------|--------------------||
--6----------------|--5--5---5---5--------|--3--3--------------||
Comments