Linkin Park - My December Chords & Tabs

 

My December Chords & Tabs

Linkin Park Chords & Tabs

Version: 3 Type: Tab 0 ratings
1 star 2 stars 3 stars 4 stars 5 stars
comments

My December Tab

   
My December
Tuning: Dropped D one half step down
C# G# C# F# A# D#
[ Tab from: http://www.guitartabs.cc/tabs/l/linkin_park/my_december_tab_ver_3.html ]
x|--------------------------------------------------------------------------|X
x|--------------------------------------------------------------------------|X
x|---0---0---0---0---0---0---0---0------------------------------------------|X
x|-2---4---2---4---0---4---0---4--------------------------------------------|X
x|--------------------------------------------------------------------------|X
x|--------------------------------------------------------------------------|X

Another way to play it can be:
x-----------------------------------------x
x-----------------------------------------x
x----5-4-5---5-4-5---0--5-4-5-0-5-4-5-----x
x--7-------7------------------------------x
x-----------------------------------------x
x-----------------------------------------x


Guitar Line
x--------------|---------------------------x
x--------------|---------------------------x
x-12*--12*--7*-|-12*--12*------------------x
x--------------|---------7*----------------x
x--------------|---------------------------x
x--------------|---------------------------x
Comments