Linkin Park - Morning After Chords & Tabs

 

Morning After Chords & Tabs

Linkin Park Chords & Tabs

Version: 2 Type: Tab 0 ratings
1 star 2 stars 3 stars 4 stars 5 stars
comments

Morning After Tab

   
Tab: Morning After
Artist: Linkin Park
Tuning: Standard!

One of my fav lp songs very good live verson i heard hehe!
strum pattern is (down,down,up,down,down,up) for the verse

Intro/verse
E-------------------------|
B-------------------------|
G-------------------------|
D-4-4-0-4-4-0--2-5--4-4-0-|
A-4-4-0-4-4-0--2-5--4-4-0-|
E-2-2-0-2-2-0----3--2-4-0-|
[ Tab from: http://www.guitartabs.cc/tabs/l/linkin_park/morning_after_tab_ver_2.html ]
And you get the jist..neways follow the pattern for each chord until you get the -2-5
    -2-5 bit thts just down strum
    ---3

chrous is little differnt but same idea
E-------------|
B-------------|
G-------------|
D-999-555-2-5-|
A-999-555-2-5-|
E-777-333---3-|

so there you have it a pretty simple song once you catch onto the pattern ne probs let 
know addy is dudleyz_boyz_3d@hotmail.com
Comments