Linkin Park - Morning After Chords & Tabs

 

Morning After Chords & Tabs

Linkin Park Chords & Tabs

Version: 1 Type: Tab 0 ratings
1 star 2 stars 3 stars 4 stars 5 stars
comments

Morning After Tab

                           LINKIN PARK

                        The Morning after

Drop D tunning


Listen to the song for the rythm

INTRO:

--------------------------------------------------------|
--------------------------------------------------------|
--3-3-3-3-3---------3-3-3-3-3---------------------------|
--3-3-3-3-3---------3-3-3-3-3---------------------------|
--3-3-3-3-3---------3-3-3-3-3---------------------------|
--3-3-3-3-3---4-4---3-3-3-3-3---------------------------|


VERSE:

Where he's singing, "wake me till the morning after,"

--------------------------------------------------------|
--------------------------------------------------------|
-3-3-3-3----4-4-4---------------------------------------|
-3-3-3-3----4-4-4---------------------------------------|
-1-1-1-1----4-4-4---------------------------------------|
------------4-4-4---------------------------------------|
[ Tab from: http://www.guitartabs.cc/tabs/l/linkin_park/morning_after_tab.html ]
Repeat intro.


then...

Chorus:

"I'm so tired..."


------------------------------------------------------------|
------------------------------------------------------------|
-3-3-3-3----4-4-4----6-6-6-6--6--3-3-3-3--4-----------------|
-3-3-3-3----4-4-4----6-6-6-6--6--3-3-3-3--4-----------------|
-1-1-1-1----4-4-4----4-4-4-4--6--1-1-1-1--4-----------------|
------------4-4-4-------------6-----------4-----------------|
Repeat that a couple of times, then...


this is that "Alive and now treat me" part, or whatever he's saying.
--------------------------------------------------------|
--------------------------------------------------------|
-----6--------------------------------------------------|
-----6--------------------------------------------------|
-----6----*Just repeat a bunch of times*----------------|
-----6--------------------------------------------------|

Repeat intro.

That's all. Enjoy!

Smacky
Comments